Oops, an error
Loading. Please wait.

Pretty Little Ditty bass

version 4
version 4

Whole song

Interactive

17,025 views 9 this week
2 commentsread comments
1 2 3 4 5
x 10
add to favorites
×
Save as Personal and add changes to this tab that will be seen only by you. Learn more ›
×
You can save this tab as Personal to edit and correct it or add notes. All changes will be seen only by you. Learn more »
launch autoscroll
font size
0
reset
guitar tuner
backing track
0:00
0:00
edit
Autoscroll
slow
fast
+/-
esc
set tempo
stop
Author
      S    P                      S     P                 P    P      
G||------------10/12-12--------|------------10/12-12--12----------|
D||-------12-------------------|-------12-----------------10---12-|
A||----------------------------|----------------------------------|
E||--10------------------------|--10------------------------------|


   S     P                              S    P               P   P               
|------------10h12h10h12h10h12h10----|------------10/12-12--12--10b---|
|-------12---------------------------|-------12-----------------------|
|------------------------------------|--------------------------------|
|--10--------------------------------|--10----------------------------|

Tempo change
|----------5-------5-----|
|------5--------5-----5--|X8
|--3---------------------|
|------------------------|                            

a tempo
|------------10/12-12--------|------------10/12-12--12----------|
|-------12-------------------|-------12-----------------10---12-|
|----------------------------|----------------------------------|
|--10------------------------|--10------------------------------|


   S     P                              S    P               P   P               
|------------10h12h10h12h10h12h10----|------------10/12-12--12--10b---|
|-------12---------------------------|-------12-----------------------|
|------------------------------------|--------------------------------|
|--10--------------------------------|--10----------------------------|

tempo change again

                                           
|-----17------16------14------14---14------|
|--------14------14------14-----------14---|
|--0--------0-------0-------0----0-------0-|
|------------------------------------------|


                                               
|------17-------17-----------19-------19-------|
|---------17-------17-----------19-------19----|
|--15--------15-------15/17--------17-------17-|
|----------------------------------------------|


                                           
|-----17------16------14------14---14------|
|--------14------14------14-----------14---|
|--0--------0-------0-------0----0-------0-|
|------------------------------------------|

                                              
|------17-------17-----------19-------19-------|
|---------17-------17-----------19-------19----|
|--15--------15-------15/17--------17-------17-|
|----------------------------------------------|


                                           
|-----17------16------14------14---14------|
|--------14------14------14-----------14---|
|--0--------0-------0-------0----0-------0-|
|------------------------------------------|
                                               
|------17-------17-----------19-------19-------|
|---------17-------17-----------19-------19----|
|--15--------15-------15/17--------17-------17-|
|----------------------------------------------|


                                           
|-----17------16------14------14---14------|
|--------14------14------14-----------14---|
|--0--------0-------0-------0----0-------0-|
|------------------------------------------|


                                              
|------17-------17-----------19-------19-------|
|---------17-------17-----------19-------19----|
|--15--------15-------15/17--------17-------17-|
|----------------------------------------------|


Uplifting...                                                               
|-----6-----7-----9-----7-----6---|-----9------11------12------11------9----|
|-------7-----7-----7-----7-----7-|-------10------10------10------10-----10-|
|--0------0-----0-----0-----0-----|--0-------0-------0-------0-------0------|
|---------------------------------|-----------------------------------------|

                                            
|-----11------12------14------12------11----|
|--------12------12------12------12------12-|
|--0--------0-------0-------0-------0-------|
|-------------------------------------------|


                                                                              
|-----11------12------14------12------11----|-----6-----7-----9-----7-----6---|
|--------12------12------12------12------12-|-------7-----7-----7-----7-----7-|
|--0--------0-------0-------0-------0-------|--0------0-----0-----0-----0-----|
|-------------------------------------------|---------------------------------|


                                          
|-----9------11------12------11------9----|
|-------10------10------10------10-----10-|
|--0-------0-------0-------0-------0------|
|-----------------------------------------|


                                            
|-----11------12------14------12------11----|
|--------12------12------12------12------12-|
|--0--------0-------0-------0-------0-------|
|-------------------------------------------|


                                                                              
|-----11------12------14------12------11----|-----6-----7-----9-----7-----6---|
|--------12------12------12------12------12-|-------7-----7-----7-----7-----7-|
|--0--------0-------0-------0-------0-------|--0------0-----0-----0-----0-----|
|-------------------------------------------|---------------------------------|


                                          
|-----9------11------12------11------9----|
|-------10------10------10------10-----10-|
|--0-------0-------0-------0-------0------|
|-----------------------------------------|


                                            
|-----11------12------14------12------11----|
|--------12------12------12------12------12-|
|--0--------0-------0-------0-------0-------|
|-------------------------------------------|


                                                                              
|-----11------12------14------12------11----|-----6-----7-----9-----7-----6---|
|--------12------12------12------12------12-|-------7-----7-----7-----7-----7-|
|--0--------0-------0-------0-------0-------|--0------0-----0-----0-----0-----|
|-------------------------------------------|---------------------------------|


                                          
|-----9------11------12------11------9----|
|-------10------10------10------10-----10-|
|--0-------0-------0-------0-------0------|
|-----------------------------------------|


                                            
|-----11------12------14------12------11----|
|--------12------12------12------12------12-|
|--0--------0-------0-------0-------0-------|
|-------------------------------------------|


                                            
|-----11------12------14------12------11----|
|--------12------12------12------12------12-|
|--0--------0-------0-------0-------0-------|
|-------------------------------------------|


                                                                         
|-----11------12------14------12------11----|-------------------|
|--------12------12------12------12------12-|-------------------|
|--0--------0-------0-------0-------0-------|--0----------------|End
|-------------------------------------------|-------------------|

            
            
Suggest correction
Creating personal tab
Creating personal tab
You can edit any tab online and save it as your Personal.

You can edit, replace or remove any tab part or add personal notes – all changes will be seen only by you.

Personal tabs can be accessed anytime from any device, even offline.
Learn more »
comments
print report bad tab
2 comments total.
+1 reply
iluvanimeXD 51 Jul 10, 2008 02:01 PM

This is great.
Probably one of the most accurate ones.

0 reply
RHCPras 10 Mar 30, 2013 06:01 AM

nice work.But i think that flea plays it on 5th fret on A and 7th fret on G but your tab is more easy and it sounds the same nice tab>

guest
You may want to rate the tab now too:
select rating
Wanna post a correction for this tab? Suggest correction