Oops, an error
Loading. Please wait.

Ready Made bass

version 2
version 2
18,658 views 3 this week
11 commentsread comments
1 2 3 4 5
x 13
add to favorites
×
Save as Personal and add changes to this tab that will be seen only by you. Learn more ›
×
You can save this tab as Personal to edit and correct it or add notes. All changes will be seen only by you. Learn more »
launch autoscroll
font size
0
reset
guitar tuner
edit
Autoscroll
slow
fast
+/-
esc
set tempo
stop
Author
-----------------------------------------------------------------------------
			     Ready Made - The Red Hot Chili Peppers
-----------------------------------------------------------------------------

Tabbed By : Kevin A. (Felas_Kevin)
e-mail: vekiskev@yahoo.com

Tuning: standard

Really awesome song. Have fun playing it right!

small update: end of first chorus was off by one not, thanks pyro.

1st Verse:
*repeat as many times as needed.
G|-----------------------------------------------------|
D|---------5----------------5----------------5---------|
A|-5-7-7-5---7-5-7--5-7-7-5---7-5-7--5-7-7-5---7-5-7---|
E|-----------------------------------------------------|

G|--------------------------|
D|---------------5----------|
A|---------5-6-7------------|
E|-4-5-6-7------------------|

*on the last time you play the final measure of the verse play;
G|--------------------------|
D|--------------------------|
A|---------5-6-7/-----------|
E|-4-5-6-7------------------|

1st Chorus:
(1:04)
G|----------------------------------|
D|----------------------------------|
A|------------5-7-------------5-----|
E|-3-33-33-5/7----5-5-55-5-5-7------|

G|-------------------------|
D|---------5---------------|
A|-7-7-5-7-----5-7---------|
E|----7-------7----7-5-3---| x2

G|---------------------------------------|
D|---------------------------------------|
A|------------5-7-5----------------5-----|
E|-33-33-3-5/7------7--5-5-55-5-5-7------|

G|-----------------------------------------7------|
D|---------5----------------------5-----7h9-9-7---|
A|-7-7-5-7-----5-7--------7-7-5-7----5-7-------10-|
E|----7-------7----7-5-3-----7------7-------------|

2nd Verse: (1:30)
*repeat as many times as needed.
G|-----------------------------------------------------|
D|---------5----------------5----------------5---------|
A|-5-7-7-5---7-5-7--5-7-7-5---7-5-7--5-7-7-5---7-5-7---|
E|-----------------------------------------------------|

G|--------------------------|
D|---------------5----------|
A|---------5-6-7------------|
E|-4-5-6-7------------------|

*on the last time you play the final measure of the verse play;
G|--------------------------|
D|--------------------------|
A|---------5-6-7/-----------|
E|-4-5-6-7------------------|

2nd Chorus: (2:08)
G|----------------------------------|
D|----------------------------------|
A|--------------------------5-------|
E|-3-33-33-333--5-5-55-5-5-7--------|

G|-------------------------|
D|---------5---------------|
A|-7-7-5-7-----5-7---------|
E|----7-------7----7-5-3---| x2

G|--------------------------------------|
D|-----------5-7-5----------------------|
A|--------5-7-----7-5-------------5-----|
E|-3-3-5/7------------5-5-55-5-5-7------|

G|-------------------------------------|
D|---------5---------------------------|
A|-7-7-5-7-----5-7--------7-7-5-7-7/---|
E|----7-------7----7-5-3-----7---------|

Guitar Solo:
*repeat as many times as needed.
G|-----------------------------------------------------|
D|---------5----------------5----------------5---------|
A|-5-7-7-5---7-5-7--5-7-7-5---7-5-7--5-7-7-5---7-5-7---|
E|-----------------------------------------------------|

G|--------------------------|
D|---------------5----------|
A|---------5-6-7------------|
E|-4-5-6-7------------------|

Breakdown:

G|-----------------------|
D|-----------------------|
A|-5--4--2---------------|
E|-------------5--4--2---| x2

3rd Verse:(3:25)
*repeat as many times as needed.
G|-----------------------------------------------------|
D|---------5----------------5----------------5---------|
A|-5-7-7-5---7-5-7--5-7-7-5---7-5-7--5-7-7-5---7-5-7---|
E|-----------------------------------------------------|

G|--------------------------|
D|---------------5----------|
A|---------5-6-7------------|
E|-4-5-6-7------------------|

*on the last time you play the final measure of the verse play;
G|--------------------------|
D|--------------------------|
A|---------5-6-7/-----------|
E|-4-5-6-7------------------|

3rd Chorus:(4:03

G|----------------------------------|
D|----------------------------------|
A|------------5-7-------------5-----|
E|-3-33-33-5/7----5-5-55-5-5-7------|

G|-------------------------|
D|---------5---------------|
A|-7-7-5-7-----5-7---------|
E|----7-------7----7-5-3---| x2

G|--------------------------------------|
D|-----------5h7p5----------------------|
A|----------5-----7-5-------------5-----|
E|-33-33-5-7----------5-5-55-5-5-7------|

G|-------------------------------------|
D|---------5---------------------------|
A|-7-7-5-7-----5-7--------7-7-5-7-7/---|
E|----7-------7----7-5-3-----7---------|

There you go, please rate :)
=============================================================================
| /  slide up
| \  slide down
| h  hammer-on
| p  pull-off
| ~  let ring
| +  harmonic
| x  Mute note
=============================================================================

            
            
Suggest correction
Creating personal tab
Creating personal tab
You can edit any tab online and save it as your Personal.

You can edit, replace or remove any tab part or add personal notes – all changes will be seen only by you.

Personal tabs can be accessed anytime from any device, even offline.
Learn more »
comments
print report bad tab
11 comments total. Showing first comments.
0 reply
jrt5024 198 May 15, 2006 08:11 PM

20 times better than that other tab on here

0 reply
leaping badger 40 May 29, 2006 12:10 PM

Greay tab, however i play that bit after the intro more like this

G|--------------------------|
D|---------------5----------|
A|---------5-6-7------------|
E|-4-5-6-7------------------|

0 reply
leaping badger 40 May 31, 2006 12:24 AM

by greay i mean great :/

guest
You may want to rate the tab now too:
select rating
Wanna post a correction for this tab? Suggest correction