Oops, an error
Loading. Please wait.
We have an official Road Trippin tab made by UG professional guitarists. Check out the tab »
×
1,522 views 9 this week
1 commentread comment
1 2 3 4 5
x 7
add to favorites
×
Save as Personal and add changes to this tab that will be seen only by you. Learn more ›
×
You can save this tab as Personal to edit and correct it or add notes. All changes will be seen only by you. Learn more »
launch autoscroll
font size
0
reset
guitar tuner
backing track
0:00
0:00
edit
Autoscroll
slow
fast
+/-
esc
set tempo
stop
Author
Difficulty
Red Hot Chili Peppers
Road Trippin'

Acoustic (official video)


Bass Tab

Tuning: EADG
Tempo : 96 bpm

Intro 00:00                                            
G|---------------------------||----------------------------|-
D|-2--2-5-4-2--------5-4-2---||-2--2-5-4-2-----------------|-  
A|------------3--3-2---------||------------3--3-2----------|-
E|---------------------------||--------------------3-2-0---|-

Verse 1: 00:09
G|---------------------------||----------------------------|-
D|-2--2-5-4-2--------5-4-2---||-2--2-5-7-5-----------------|-  
A|------------3--3-2---------||------------3--3-2----------|- x2
E|---------------------------||--------------------3-2-0---|-
Road trippin' with my two favorite allies
Fully loaded we got snacks and supplies
It's time to leave this town
It's time to steal away
Let's go get lost
Anywhere in the U.S.A.

00:28
G|---------------------------|-
D|-2--2-5-4-2--------5-4-2---|-  
A|------------3--3-2---------|-
E|---------------------------|-
Let's go get lost
Let's go get lost

Chorus : 00:32
G|---------------------------||----------------------------|-
D|-2--2-5-4-2--------5-4-2---||-2--2-5-7-5-----------------|-  
A|------------3--3-2---------||------------3--3-2----------|-
E|---------------------------||--------------------3-2-0---|-
Blue you sit so pretty
West of the one
Sparkles light with yellow icing
Just a mirror for the sun

G|---------------------------|-
D|-2--2-5-4-2--------5-4-2---|-  
A|------------3--3-2---------|-
E|---------------------------|-
Just a mirror for the sun

G|---------------------------||-------------|-
D|-2--2-5-4-2--------5-7-5---||-------------|-  
A|------------3--3-2-------3-||-2----2----2-|-
E|---------------------------||-------------|-
Just a mirror for the sun...   sun, sun, sun 

Bridge: 00:56
G|----------------|-
D|-------------0--|-
A|-0---2---3------|-
E|----------------|-
These Smiling eyes are just a mirror for

Verse 2: 01:01
G|---------------------------||----------------------------|-
D|-2--2-5-4-2--------5-4-2---||-2--2-5-7-5-----------------|-  
A|------------3--3-2---------||------------3--3-2----------|- x2
E|---------------------------||--------------------3-2-0---|-
So much as come before those battles lost and won
This life is shining more forever in the sun
Now let us check our heads
And let us check the surf
Staying high and dry's
More trouble than it's worth
In the sun

01:22
G|----------------------------||----------------------------|-
D|-2--2-5-4-2---------5-4-2---||-2--2-5-7-5-----------------|-  
A|------------3--33-2---------||-----------3--33-2----------|-
E|----------------------------||--------------------3-2-0---|-
Just a mirror for the sun
Just a mirror for the sun

01:27
G|---------------------------||-------------|-
D|-2--2-5-4-2--------5-7-5---||-------------|-  
A|------------3--3-2-------3-||-2----2----2-|-
E|---------------------------||-------------|-
Just a mirror for the...       sun, sun, sun 


01:33
G|-----------------|-
D|-------------0---|-
A|-0---2---3-------|-
E|-----------------|-
These Smiling eyes are just a mirror for...


Interlude : 01:39
G|--------------|--------------|-------------|--------------|---------------|-
D|-2----------0-|-2----------4~|-2---------0-|-2----------4~|-4-4-4--4-4--4-|-
A|----0---3-----|----0---3-----|----0---3----|----0---3-----|---------------|-
E|--------------|--------------|-------------|--------------|---------------|-

Verse 3: 02:01
G|---------------------------||----------------------------|-
D|-2--2-5-4-2--------5-4-2---||-2--2-5-7-5-----------------|-  
A|------------3--3-2---------||------------3--3-2----------|- x2
E|---------------------------||--------------------3-2-0---|-
In Big Sur we take some time to linger on
We three hunky dory's got our snakefinger on
Now let us drink the stars
It's time to steal away
Let's go get lost
Right here in the U.S.A

02:20
G|----------------------------|-
D|-2--2-5-4-2---------5-4-2---|-  
A|------------3--33-2---------|-
E|----------------------------|-
Let's go get lost
Let's go get lost

Chorus : 02:25
G|---------------------------||----------------------------|-
D|-2--2-5-4-2--------5-4-2---||-2--2-5-7-5-----------------|-  
A|------------3--3-2---------||------------3--3-2----------|- 
E|---------------------------||--------------------3-2-0---|-
Blue you sit so pretty
West of the one
Sparkles light with yellow icing
Just a mirror for the sun

G|----------------------------|-
D|-2--2-5-4-2---------5-4-2---|-  
A|------------3--33-2---------|-
E|----------------------------|-
Just a mirror for the sun

G|---------------------------||-------------|-
D|-2--2-5-4-2--------5-7-5---||-------------|-  
A|------------3--3-2-------3-||-2----2----2-|-
E|---------------------------||-------------|-
Just a mirror for the          sun...


02:44
These Smiling eyes are just a mirror for
These Smiling eyes are just a mirror for
These Smiling eyes are just a mirror for
G|----------------|---------------|---------------|-
D|-------------0--|------------0--|------------0--|-
A|-0---2---3------|-0---2---3-----|-0---2---3-----|-
E|----------------|---------------|---------------|-

Outro: 00;35
G|---0---0---0---0---||---0---0---0--0------|-
D|-2---2---2---2---2-||-2---2---2---2---2-2-|-  
A|-------------------||---------------------|-
E|-------------------||---------------------|-

G|----------------|-
D|-2~~~~~---------|-  
A|----------------|-
E|----------------|-

End: 03:26Red Hot Chili Peppers
Road Trippin'
   
  WARNER BROS INC

Bass Tab


Tuning: EADG
Tempo : 96 bpm

Intro 00:00                                            
G|---------------------------||----------------------------|-
D|-2--2-5-4-2--------5-4-2---||-2--2-5-4-2-----------------|-  
A|------------3--3-2---------||------------3--3-2----------|-
E|---------------------------||--------------------3-2-0---|-

Verse 1: 00:09
G|---------------------------||----------------------------|-
D|-2--2-5-4-2--------5-4-2---||-2--2-5-7-5-----------------|-  
A|------------3--3-2---------||------------3--3-2----------|- x2
E|---------------------------||--------------------3-2-0---|-
Road trippin' with my two favorite allies
Fully loaded we got snacks and supplies
It's time to leave this town
It's time to steal away
Let's go get lost
Anywhere in the U.S.A.

00:28
G|---------------------------|-
D|-2--2-5-4-2--------5-4-2---|-  
A|------------3--3-2---------|-
E|---------------------------|-
Let's go get lost
Let's go get lost

Chorus : 00:32
G|---------------------------||----------------------------|-
D|-2--2-5-4-2--------5-4-2---||-2--2-5-7-5-----------------|-  
A|------------3--3-2---------||------------3--3-2----------|-
E|---------------------------||--------------------3-2-0---|-
Blue you sit so pretty
West of the one
Sparkles light with yellow icing
Just a mirror for the sun

G|---------------------------|-
D|-2--2-5-4-2--------5-4-2---|-  
A|------------3--3-2---------|-
E|---------------------------|-
Just a mirror for the sun

G|---------------------------||-------------|-
D|-2--2-5-4-2--------5-7-5---||-------------|-  
A|------------3--3-2-------3-||-2----2----2-|-
E|---------------------------||-------------|-
Just a mirror for the sun...   sun, sun, sun 

Bridge: 00:56
G|----------------|-
D|-------------0--|-
A|-0---2---3------|-
E|----------------|-
These Smiling eyes are just a mirror for

Verse 2: 01:01
G|---------------------------||----------------------------|-
D|-2--2-5-4-2--------5-4-2---||-2--2-5-7-5-----------------|-  
A|------------3--3-2---------||------------3--3-2----------|- x2
E|---------------------------||--------------------3-2-0---|-
So much as come before those battles lost and won
This life is shining more forever in the sun
Now let us check our heads
And let us check the surf
Staying high and dry's
More trouble than it's worth
In the sun

01:22
G|----------------------------||----------------------------|-
D|-2--2-5-4-2---------5-4-2---||-2--2-5-7-5-----------------|-  
A|------------3--33-2---------||-----------3--33-2----------|-
E|----------------------------||--------------------3-2-0---|-
Just a mirror for the sun
Just a mirror for the sun

01:27
G|---------------------------||-------------|-
D|-2--2-5-4-2--------5-7-5---||-------------|-  
A|------------3--3-2-------3-||-2----2----2-|-
E|---------------------------||-------------|-
Just a mirror for the...       sun, sun, sun 


01:33
G|-----------------|-
D|-------------0---|-
A|-0---2---3-------|-
E|-----------------|-
These Smiling eyes are just a mirror for...


Interlude : 01:39
G|--------------|--------------|-------------|--------------|---------------|-
D|-2----------0-|-2----------4~|-2---------0-|-2----------4~|-4-4-4--4-4--4-|-
A|----0---3-----|----0---3-----|----0---3----|----0---3-----|---------------|-
E|--------------|--------------|-------------|--------------|---------------|-

Verse 3: 02:01
G|---------------------------||----------------------------|-
D|-2--2-5-4-2--------5-4-2---||-2--2-5-7-5-----------------|-  
A|------------3--3-2---------||------------3--3-2----------|- x2
E|---------------------------||--------------------3-2-0---|-
In Big Sur we take some time to linger on
We three hunky dory's got our snakefinger on
Now let us drink the stars
It's time to steal away
Let's go get lost
Right here in the U.S.A

02:20
G|----------------------------|-
D|-2--2-5-4-2---------5-4-2---|-  
A|------------3--33-2---------|-
E|----------------------------|-
Let's go get lost
Let's go get lost

Chorus : 02:25
G|---------------------------||----------------------------|-
D|-2--2-5-4-2--------5-4-2---||-2--2-5-7-5-----------------|-  
A|------------3--3-2---------||------------3--3-2----------|- 
E|---------------------------||--------------------3-2-0---|-
Blue you sit so pretty
West of the one
Sparkles light with yellow icing
Just a mirror for the sun

G|----------------------------|-
D|-2--2-5-4-2---------5-4-2---|-  
A|------------3--33-2---------|-
E|----------------------------|-
Just a mirror for the sun

G|---------------------------||-------------|-
D|-2--2-5-4-2--------5-7-5---||-------------|-  
A|------------3--3-2-------3-||-2----2----2-|-
E|---------------------------||-------------|-
Just a mirror for the          sun...


02:44
These Smiling eyes are just a mirror for
These Smiling eyes are just a mirror for
These Smiling eyes are just a mirror for
G|----------------|---------------|---------------|-
D|-------------0--|------------0--|------------0--|-
A|-0---2---3------|-0---2---3-----|-0---2---3-----|-
E|----------------|---------------|---------------|-

Outro: 00;35
G|---0---0---0---0---||---0---0---0--0------|-
D|-2---2---2---2---2-||-2---2---2---2---2-2-|-  
A|-------------------||---------------------|-
E|-------------------||---------------------|-

G|----------------|-
D|-2~~~~~---------|-  
A|----------------|-
E|----------------|-

End: 03:26

            
            
Suggest correction
Creating personal tab
Creating personal tab
You can edit any tab online and save it as your Personal.

You can edit, replace or remove any tab part or add personal notes – all changes will be seen only by you.

Personal tabs can be accessed anytime from any device, even offline.
Learn more »
comments
print report bad tab
1 comment total.
0 reply
MATAilak 411 Jun 30, 2015 05:00 AM

great keep going

guest
You may want to rate the tab now too:
select rating
Wanna post a correction for this tab? Suggest correction