Oops, an error
Loading. Please wait.

Roller Coaster Of Love Tab

18,453 views 3 this week
2 commentsread comments
1 2 3 4 5
worth learning
x 8
add to favorites
launch autoscroll
font size
0
reset
how to read this tab
guitar tuner
Autoscroll
slow
fast
+/-
esc
set tempo
stop
Help us to improve Ultimate-Guitar.com Take our survey!
×
Contributor
this is my first tab so go easy on me

opening/verse
----------------------------------|
----------------------------------|
10-10-8--8--7-7----7-7-7-8--10-10-|
12-12-10-10-9-9----9-9-9-10-12-12-|
----------------------------------|
----------------------------------|


----------------------------------|
----------------------------------|
10-10-8--8--7-7----7-7-7-8--10-10-|
12-12-10-10-9-9----9-9-9-10-12-12-|
----------------------------------|
----------------------------------|


----------------------------------|
----------------------------------|
10-10-8--8--7-7----7-7-7-8--10-10-|
12-12-10-10-9-9----9-9-9-10-12-12-|
----------------------------------|
----------------------------------|


----------------------------------|
----------------------------------|
10-10-8--8--7-7----7-7-7-8--10-10-|
12-12-10-10-9-9----9-9-9-10-12-12-|
----------------------------------|
----------------------------------|


----------------------------------|
----------------------------------|
10-10-8--8--7-7----7-7-7-8--10-10-|
12-12-10-10-9-9----9-9-9-10-12-12-|
----------------------------------|
----------------------------------|


----------------------------------|
----------------------------------|
10-10-8--8--7-7----7-7-7-8--10-10-|
12-12-10-10-9-9----9-9-9-10-12-12-|
----------------------------------|
----------------------------------|


----------------------------------|
----------------------------------|
10-10-8--8--7-7----7-7-7-8--10-10-|
12-12-10-10-9-9----9-9-9-10-12-12-|
----------------------------------|
----------------------------------|


----------------------------------|
----------------------------------|
10-10-8--8--7-7----7-7-7-8--10-10-|
12-12-10-10-9-9----9-9-9-10-12-12-|
----------------------------------|
----------------------------------|
zebailey
comments
print report bad tab
2 comments total.
+2 reply
changobilly22 148 wrote on January 16 2010, 12:32 am

i think it might be

E|-8--8--7-7-6-6-6---6-6-7-7-8--8--8--|
B|-8--8--7-7-6-6-6---6-6-7-7-8--8--8--|
G|-9--9--8-8-7-7-7---7-7-8-8-9--9--9--|
D|-10-10-9-9-8-8-8---8-8-9-9-10-10-10-|
A|------------------------------------|
E|------------------------------------|

you should repost : )

+1 reply
Syxxter22 44 wrote on August 12 2013, 03:33 pm

Actually you're close but it sounds more like this:

E|-8--8--6-6-5-5-5---5-5-6-6-8--8--8--|
B|-8--8--6-6-5-5-5---5-5-6-6-8--8--8--|
G|-9--9--7-7-6-6-6---6-6-7-7-9--9--9--|
D|-10-10-8-8-7-7-7---7-7-8-8-10-10-10-|
A|------------------------------------|
E|------------------------------------|

I want to post or [tab]
guest
You may want to rate the tab now too:
select rating
Please do not post tabs as comments. Select "correction" instead!