Oops, an error
Loading. Please wait.

Save This Lady bass

version 1
version 1

Whole song

Interactive

3,083 views 6 this week
1 commentread comment
1 2 3 4 5
x 5
add to favorites
×
Save as Personal and add changes to this tab that will be seen only by you. Learn more ›
×
You can save this tab as Personal to edit and correct it or add notes. All changes will be seen only by you. Learn more »
launch autoscroll
font size
0
reset
guitar tuner
edit
Autoscroll
slow
fast
+/-
esc
set tempo
stop
Author
Difficulty
this song is on the desecration smile cds. its pretty easy, there are a few variations 
i didn't include them. either make your own or figure them out yourself. p.s. CHILI 
RULE ALL!!!! and rate this tab and post comments. its my first 1 and i want to know how i did.

verse
starts at 0:11
g---------------------------------------------------]
d--------------------------------222(2)2(2)-2320----]
a-5555(5)55-------------3333(3)-----------------3(3)](x6)
e------------5555(5)55------------------------------]


chorus
0:42
g---------------------------------------------------------]
d-------------------------------------222(2)2(2)-2320-----]
a-5(5)555(5)55-------------3(3)333(3)----------------3(3)-](x3)then
e--------------55(5)5(5)55--------------------------------]

g---------------------------------]
d---------------------------------]
a---------------------------------]
e-5-5-5-5-5-5-5-5-0-0-0-0-0-0-0-0-](let ring)

verse(1:04)
chorus(1:36)

bridge
(1:58)
g--------------------------------------]
d---------------------3~----2~---------]
a--------2~----3~------------------5~--]
e--5~----------------------------------]

g----------------059~-------------------------]
d---------------2-------3~---2~----------32---]
a--------2~----3-------------------5~------53-]
e--5~-----------------------------------------]

g-------------------------------------------------------------]
d----------------------3~---342~---23------3~-----2~-----235~-]
a--------2~----3~--------------------5~-----------------------]
e--5~---------------------------------------------------------]

verse(2:36)
chorus(3:08)(x2)
verse(3:51)fade out

            
            
Suggest correction
Creating personal tab
Creating personal tab
You can edit any tab online and save it as your Personal.

You can edit, replace or remove any tab part or add personal notes – all changes will be seen only by you.

Personal tabs can be accessed anytime from any device, even offline.
Learn more »
comments
print report bad tab
1 comment total.
0 reply
jubasxd 72 Dec 21, 2010 07:37 AM

Very good tab, thank you!

Last part of the chorus goes like this:

1-1-1-1-1-1-1-1-0-0-0-0-0-0-0-0

and not like this:

5-5-5-5-5-5-5-5-0-0-0-0-0-0-0-0

guest
You may want to rate the tab now too:
select rating
Wanna post a correction for this tab? Suggest correction