Oops, an error
Loading. Please wait.

Savior tab

version 2
version 2

Whole song

Interactive

1,008 views 1 this week
2 commentsread comments
1 2 3 4 5
1 last vote to show rating
add to favorites
×
Save as Personal and add changes to this tab that will be seen only by you. Learn more ›
×
You can save this tab as Personal to edit and correct it or add notes. All changes will be seen only by you. Learn more »
launch autoscroll
font size
0
reset
how to read this tab
guitar tuner
backing track
0:00
0:00
edit
Autoscroll
slow
fast
+/-
esc
set tempo
stop
Author
#----------------------------------PLEASE NOTE--------------------------------#
#This file is the author's own work and represents their interpretation of the#
#song. You may only use this file for private study, scholarship, or research.#
#-----------------------------------------------------------------------------#
#-- File created with Instab - http://www.pconline.com/~smcarey/instab.html --#
#-----------------------------------------------------------------------------#

Author/Artist: Red Hot Chili Peppers
Title: Savior

() Bass
m mute



Tuning (eb A D G B E), (eb, D) Down ~ 10%
Live Standard Tuning 
Key: (E + D) -> (E + A) or (D + C#)



----|----x----x----x----x---x-----x---x-------x---x----|--|-----|
----|----6----6----6----6---6-----5---5-------5---5----|--|-----|
----|-7--7-7--7-7--7-7--7-7-7--5--5-5-5-5--7--7-7-7-7--|--|-9---|
----|-7----7----7----7----7----5----5---5--5----5---5--|--|-9---|
----|--------------------------------------------------|--|-7---|
----|--------------------------------------------------|--|-x---|
         
  
  Intro/Chorus       




----|-14/15--14\13--------------------------4/5--8-------------------------|--
----|---------------15-18/--15-18-18-18/20----------7/10\8-----7/8\6-br-\--|--
----|----------------------------------------------------------------------|--
----|----------------------------------------------------------------------|--
----|-------------------------------------------------------17-------------|--
----|----------------------------------------------------------------------|--
  

  Intro Solo                                                                            





----|----------------------------------------------------------------------------|
----|----------------------------------------------------------------------------|
----|----------------------------------------------------------------------------|
----|----------------------------------------------------------------------------|
----|---17-17----1717---17-----17---17----17-17---------1717-----17------17---17-|
----|(11-------9------4-----4-----4-----11------11-11-9-------4------7------7)---|
       
 
  Interlude 



----|-------|--|-------------|--------------|
----|-------|--|-------------|--------------|
----|-------|--|-------------|--------------|
----|----17-|--|-------------|----17--------|
----|-17----|--|-20-17-17-17-|-20----17-17--|
----|-------|--|-------------|--------------|
    
   
  Interlude Pt.2 1st End       2nd End





----|-------------------------------------------------------------------------
----|-------------------------------------------------------------------10b---
----|-------------------------------------------------------------------------
----|-------------------------------------------------------------------------
----|----------17-17----------17-17-------19b-17--17-17-17-----------17-------
----|-16-18-21-------16-18-21-------16-18------------------18-18--21----------
  

  Solo 2 Slightly Palm Muted                                                  




------------------------------------------------------------------------------
-10--13-10\8--8b--8b--8b--9-/10-10--10-13-13-13-15-10-13-13-13-15-10-13-13----
------------------------------------------------------------------------------
------------------------------------------------------------------------------
------------------------------------------------------------------------------
------------------------------------------------------------------------------
                                                                              



------------------------------------------------------------------------------
-19b-19b-19b-19b---15-17-18b--15-17-18b--14-16\-------------------------------
------------------------------------------------------------------------------
------------------------------------------------------------------------------
------------------------------------------------16/17-------------------------
-------------------------------------------------------21--16/18-16/18--------
                 

                                                             

------------------------------------------------------------------------------
------------------------------------------------------------------------------
------------------------------------------------------------------------------
------------------------------------------------------------------------------
------------------------------------------------------------------------------
-16/18-16/18-16/18-16/18-21-21-21-18-18--16/18--14--14/18--13--11--11-11-11---
                                                                              



------------------------------------------------------------------------------
------------------------------------------------------------------------------
------------------------------------------------------------------------------
------------------------------------------------------------------------------
----------------------------------------------------16/17--------19b--19b-----
-6-6--6/11-11--13-13-15-17-17-17-21--21-18/21\17-18--------20/21--------------
                                                                              



--------------------------------|
--------------------------------|
--------------------------------|
--------------------------------|
-19b--19b--19b--19b--17---------|
--------------------------x-\---|
                                                                              

            
            
Suggest correction
Creating personal tab
Creating personal tab
You can edit any tab online and save it as your Personal.

You can edit, replace or remove any tab part or add personal notes – all changes will be seen only by you.

Personal tabs can be accessed anytime from any device, even offline.
Learn more »
Give kudos to tab author, rate the tab!
1 2 3 4 5
comments
print report bad tab
2 comments total.
0 reply
aidan94 31 Jul 18, 2014 04:28 AM

Lack of accuracy. Clearly wrong.

0 reply
sovaso 1,406 Aug 02, 2014 02:11 PM

Lack of accuracy. Tab incomplete. Clearly wrong.

guest
You may want to rate the tab now too:
select rating
Wanna post a correction for this tab? Suggest correction