Oops, an error
Loading. Please wait.

Scar Tissue Tab

version 1
321,598 views 162 this week
33 commentsread comments
1 2 3 4 5
x 137
add to favorites
launch autoscroll
font size
0
reset
how to read this tab
guitar tuner
Autoscroll
slow
fast
+/-
esc
set tempo
stop
Help us to improve Ultimate-Guitar.com Take our survey!
×
Song: Scar Tissue
Artist: Red Hot Chili Peppers
Album: Californication
Type of Tab: Solos
Tabbed by: Anthony
Notes: 1) listen to the song carefully, because I haven’t added the timing
           2) / = slide
           3) This is 100% correct


[Solo 1]

e|------------------------------------------|
B|-13/10--10/8--8/10--10/12-12/13-----------|
G|------------------------------------------|
D|------------------------------------------|
A|------------------------------------------|
E|------------------------------------------|


[Solo 2]

e|------------------------------------------------10/12/13|
B|13/15-15-13-10-10/8-13/10-15-17-13/10-13/8-13/10--------|
G|--------------------------------------------------------|
D|--------------------------------------------------------|
A|--------------------------------------------------------|
E|--------------------------------------------------------|


[Solo 3]

e|---17-17/15-17/12--13/10--8/10-10/8-10-10-10/8/5-|
B|-------------------------------------------------|
G|-------------------------------------------------|
D|-------------------------------------------------|
A|-------------------------------------------------|
E|-------------------------------------------------|

e|--8/3--8/5---------------------------------------|
B|---------------10-10-10-10-----------------------|
G|----------7/9/7-----------7/9/7--7/9/5---5/7-----|
D|---------------------------------------------7---|
A|-------------------------------------------------|
E|-------------------------------------------------|

e|-------13/12--------------------------|
B|----10-------13/15/10----13/8--10-----| 
G|--------------------------------------|
D|--------------------------------------|
A|--------------------------------------|
E|--------------------------------------|

*********************

/ = slide

*********************
Suggest correction
comments
print report bad tab
33 comments total. Showing first comments.
+5 reply
t0mdel0nge 10 Mar 12, 2002 12:00 AM

Dude, i'm impressed i fucking suck at guitar and i sounded Ok!!!! thanks man

0 reply
marlboroman 0 Apr 15, 2002 12:00 AM

This was exactly what I needed,thank you!

0 reply
4string_assasin 581 May 08, 2002 12:00 AM

i love using a slide and this is like my favourite piece but i was to shit to tab it
Thanx heaps mate

guest
You may want to rate the tab now too:
select rating
Wanna post a correction for this tab? Suggest correction