Oops, an error
Loading. Please wait.
We have an official Scar Tissue tab made by UG professional guitarists. Check out the tab »
×
251,927 views 876 this week
29 commentsread comments
1 2 3 4 5
x 164
add to favorites
×
Save as Personal and add changes to this tab that will be seen only by you. Learn more ›
×
You can save this tab as Personal to edit and correct it or add notes. All changes will be seen only by you. Learn more »
save as personal
new!
launch autoscroll
font size
0
reset
how to read this tab
guitar tuner
backing track
0:00
0:00
Autoscroll
slow
fast
+/-
esc
set tempo
stop
Author
I listened to the song and im pretty sure this is how it goes
if it's wrong then someone fix it for me i just wanted a good
version of the tab on here cause the rest aren't that good.


[intro]

E-----------------------------------------------|
B-----10--10--10--10--10----5-5/6--6--6-6-6/5---|
G-----------------------------------------------|
D-----------------------------------------------|
A---8---8---8---8---8-------3-3/5--5-5-5-5/3----|
E-----------------------------------------------|

E-----------------------------------------------|
B-----10--10--10--10--10--8--5/6---6p8-6p8------|
G-----------------------------------------------|
D-----------------------------------------------|
A----8---8---8---8---8-------3/5----------------|
E-----------------------------------------------|


[Verse 1]

E-----------------------------------------------|
B-----10--10--10--10--10----5-5/6--6--6-6-6/5---|
G-----------------------------------------------|
D-----------------------------------------------|
A---8---8---8---8---8-------3-3/5--5-5-5-5/3----|
E-----------------------------------------------|

E--------------------------8----------------------|
B-----10--10--10--10--10----8-8/10-10-10-10-8-6-5-|
G-------------------------------------------------|
D-------------------------------------------------|
A---8---8---8---8---8-----------------------------|
E-------------------------------------------------|


[Chorus]

F C Dm C


[Verse 2]

E--------------------------8-----------------13-12-10-8-|
B-----10--10--10--10--10----8-8/10-10-10-10-------------|
G-------------------------------------------------------|
D-------------------------------------------------------|
A---8---8---8---8---8-----------------------------------|
E-------------------------------------------------------|


F C Dm C F C


[First Solo]

E-----------------------------------------------|
B----13/10--10/8--8/10--10/12/13----------------|
G-----------------------------------------------|
D-----------------------------------------------|
A-----------------------------------------------|
E-----------------------------------------------|


[Verse 3]

E--------------------------8-------------------------------|
B-----10--10--10--10--10----8-8/10-10-10-10--12-13-12-10-8-|
G----------------------------------------------------------|
D----------------------------------------------------------|
A---8---8---8---8---8--------------------------------------|
E----------------------------------------------------------|


[Chorus]

F C Dm C

E--------------------------8----------------12-10------|
B-----10--10--10--10--10----8-8/10-10-10-10------13-12-|
G------------------------------------------------------|
D------------------------------------------------------|
A---8---8---8---8---8----------------------------------|
E------------------------------------------------------|

F C Dm C F C


[Second Solo]


E-------------------------------------------------10/12/13-|
B--13-15-13-10-10/8-13/10---17-15-13-10-13/8-13/10---------|
G----------------------------------------------------------|
D----------------------------------------------------------|
A----------------------------------------------------------|
E----------------------------------------------------------|


[Verse 4]

E--------------------------8----------------------|
B-----10--10--10--10--10----8-8/10-10-10-10-8-6-5-|
G-------------------------------------------------|
D-------------------------------------------------|
A---8---8---8---8---8-----------------------------|
E-------------------------------------------------|


[Chorus]

F C Dm C F C


[Third solo]

E---17-17/15-17/12--12/13/10--8/10-8/10--10/8/5-|
B-----------------------------------------------|
G-----------------------------------------------|
D-----------------------------------------------|
A-----------------------------------------------|
E-----------------------------------------------|


E--5/8/3--5/8/5-------------------------------------------|
B---------------------10-10-10-10-------------------------|
G--------------7/9/7--------------7/9/7--7/9/5--5/7-------|
D--------------------------------------------------7------|
A---------------------------------------------------------|
E---------------------------------------------------------|


E-------13/12----------------------|
B----10-------13/15/10----13/8--10-|
G----------------------------------|
D----------------------------------|
A----------------------------------|
E----------------------------------|

************************************

/  Slide UP

************************************

That's it! Like i said if i made any mistakes, someone jsut correct them for me.
Oh yeah, the chorus right before any of the solos, you add an F and a C at the
end of the chorus only before a solo though, so i hope everyone enjoys this,
damn it took like an hour to do. David-
Suggest correction
comments
print report bad tab
29 comments total. Showing first comments.
+2 reply
wicked_clown 10 Jan 08, 2002 07:00 PM

great

+2 reply
davidmatjr 10 Mar 15, 2003 07:00 PM

good work jams

+3 reply
greenspring101 10 May 22, 2004 08:00 PM

this is the best tab i've seen

guest
You may want to rate the tab now too:
select rating
Wanna post a correction for this tab? Suggest correction