Oops, an error
Loading. Please wait.

Sex Rap Bass Tab

version 2
version 2

Whole song

Interactive

2,026 views 1 this week
no commentswrite comment
1 2 3 4 5
please rate
add to favorites
launch autoscroll
font size
0
reset
guitar tuner
Tab Pro tools
  • play this tab
  • loop segment
  • change instrument
  • show fretboard
  • metronome
×
Best way to learn
"Sex Rap"
Autoscroll
slow
fast
+/-
esc
set tempo
stop
Contributor
Difficulty
novice
-------------------------------------------------------------------------------
			     Sex Rap - Red Hot Chili Peppers
-------------------------------------------------------------------------------

Tabbed By : nick270b 
Watch the Video at: http://uk.youtube.com/watch?v=GI-aQl-5Dvk

Tuning: Standard

Verse 1
G|----------------------------------------------------|
D|----------------------------------------------------|
A|-------------3------------3------------3-------x6-x5|
E|--5-5-3--5-5---5-5-3--5-5---5-5-3--5-5---5-5-3------|

G|----------------------------------------------------|
D|----------------------------------------------------|
A|-------------3------------3------------3-------x6-x5|
E|--5-5-3--5-5---5-5-3--5-5---5-5-3--5-5---5-5-3------|

G|----------------------------------------------------|
D|----------------------------------------------------|
A|-------------3------------3------------3-------x6-x5|
E|--5-5-3--5-5---5-5-3--5-5---5-5-3--5-5---5-5-3------|

G|----------------------------------------------------|
D|----------------------------------------------------|
A|-------------3------------3------------3-------x6-x5|
E|--5-5-3--5-5---5-5-3--5-5---5-5-3--5-5---5-5-3------|

Chorus:
G|---------------|-------------|---------------|-------------|
D|---------------|-------------|---------------|-------------|
A|--7h5--7h5--4-5|--7h5--7h5--5|--7h5--7h5--4-5|--7h5--7h5--5|
E|-----7----7----|-----7----7--|-----7----7----|-----7----7--|


Verse 2
G|----------------------------------------------------|
D|----------------------------------------------------|
A|-------------3------------3------------3-------x6-x5|
E|--5-5-3--5-5---5-5-3--5-5---5-5-3--5-5---5-5-3------|

G|----------------------------------------------------|
D|----------------------------------------------------|
A|-------------3------------3------------3-------x6-x5|
E|--5-5-3--5-5---5-5-3--5-5---5-5-3--5-5---5-5-3------|

G|----------------------------------------------------|
D|----------------------------------------------------|
A|-------------3------------3------------3-------x6-x5|
E|--5-5-3--5-5---5-5-3--5-5---5-5-3--5-5---5-5-3------|

G|----------------------------------------------------|
D|----------------------------------------------------|
A|-------------3------------3------------3-------x6-x5|
E|--5-5-3--5-5---5-5-3--5-5---5-5-3--5-5---5-5-3------|

Chorus:
G|---------------|-------------|---------------|-------------|
D|---------------|-------------|---------------|-------------|
A|--7h5--7h5--4-5|--7h5--7h5--5|--7h5--7h5--4-5|--7h5--7h5--5|
E|-----7----7----|-----7----7--|-----7----7----|-----7----7--|


Guitar Solo:
G|--------------------------------------------------------|
D|--------------------------------------------------------|
A|--------------------------------------------------------|
E|-3-3-1--3-3-1--3-3-1--3-3-1--3-3-1--3-3-1--3-3-1--3-3-1-|

G|---------------------------|---------------------------|
D|---------------------------|---------------------------|
A|-5-5-3--5-5-3--5-5-3--5-5-3|-7-7-5--7-7-5--7-7-5--7-7-5|
E|---------------------------|---------------------------|

Verse/Outro
G|----------------------------------------------------|--------------------|
D|----------------------------------------------------|---------------5/10~|
A|-------------3------------3------------3-------x6-x5|-------------3------|
E|--5-5-3--5-5---5-5-3--5-5---5-5-3--5-5---5-5-3------|--5-5-3--5-5--------|



| /  slide up
| \  slide down
| h  hammer-on
| p  pull-off
| ~  vibrato
| +  harmonic
| x  Mute note
===============================================================================


comments
We did not receive enough feedback on this tab! Please rate:
print report bad tab
1 2 3 4 5
I want to post or [tab]
guest
You may want to rate the tab now too:
select rating
Please do not post tabs as comments. Select "correction" instead!