Oops, an error
Loading. Please wait.
We have an official She Looks To Me tab made by UG professional guitarists. Check out the tab »
×
1,743 views 3 this week
2 commentsread comments
1 2 3 4 5
x 3
add to favorites
×
Save as Personal and add changes to this tab that will be seen only by you. Learn more ›
×
You can save this tab as Personal to edit and correct it or add notes. All changes will be seen only by you. Learn more »
launch autoscroll
font size
0
reset
how to read this tab
guitar tuner
backing track
0:00
0:00
edit
Autoscroll
slow
fast
+/-
esc
set tempo
stop
Author
Difficulty
Song: She looks to me
Artist: Red Hot Chili Peppers
Tabbed by: Chester06RHCP
           Nets6ranking@yahoo.com


Intro:

e------------------11----11-------------------------------|
B---12-------12-------12----12-11----11----14----14-------|
G------13-------13----------------11----11----13----------|
D---------13----------------------------------------------|
A---------------------------------------------------------|
E---------------------------------------------------------|

e------------------11----11-------------|
B---12-------12-------12----12--11------|
G------13-------13--------------11------|
D---------13--------------------11------|
A---------------------------------------|
E---------------------------------------|

e--------------------------------------|
B--------------------------------------|
G---4-4-4---8-8-8--xx------------------|
D---6-6-6---9-9-9--xx--4-4-4s6-6-6-----| x2
A---6-6-6---9-9-9--xx--4-4-4s6-6-6-----|
E-----------7-7-7--xx--2-4-4s4-4-4-----|

Verse:

e--------------------------------------|
B--------------------------------------|
G---4-4-4---8-8-8--xx------------------|
D---6-6-6---9-9-9--xx--4-4-4s6-6-6-----| x3
A---6-6-6---9-9-9--xx--4-4-4s6-6-6-----|
E-----------7-7-7--xx--2-4-4s4-4-4-----|

e-----------------------------2-2---|
B-----------------------------2-2---|
G---4-4-4---8-8-8--xx---------3-3---|
D---6-6-6---9-9-9--xx--4-4-4--4-4---|
A---6-6-6---9-9-9--xx--4-4-4--4-4---|
E-----------7-7-7--xx--2-4-4--2-2---|

Chorus:

e----------------11-11-11----------------------------|
B---12-12-12--x--12-12-12--11-11-11--14-14-14-14-----|
G---13-13-13--x--11-11-12--11-11-11--13-13-13-13-----|
D---13-13-13--x------------11-11-11------------------| x4
A----------------------------------------------------|
E----------------------------------------------------|

Verse 2:

e--------------------------------------|
B--------------------------------------|
G---4-4-4---8-8-8--xx------------------|
D---6-6-6---9-9-9--xx--4-4-4s6-6-6-----| x3
A---6-6-6---9-9-9--xx--4-4-4s6-6-6-----|
E-----------7-7-7--xx--2-4-4s4-4-4-----|

e-----------------------------2-2---|
B-----------------------------2-2---|
G---4-4-4---8-8-8--xx---------3-3---|
D---6-6-6---9-9-9--xx--4-4-4--4-4---|
A---6-6-6---9-9-9--xx--4-4-4--4-4---|
E-----------7-7-7--xx--2-4-4--2-2---|

Chorus:

e----------------11-11-11----------------------------|
B---12-12-12--x--12-12-12--11-11-11--14-14-14-14-----|
G---13-13-13--x--11-11-12--11-11-11--13-13-13-13-----|
D---13-13-13--x------------11-11-11------------------| x4
A----------------------------------------------------|
E----------------------------------------------------|

Bridge:

e-------------------------------------------------|
B-------------------------------------------------|
G---4-4-4-x-x--8-8-8--xx--------------------------|
D---6-6-6-x-x--9-9-9--xx--4-4-4--x-x--4-4-4--x-x--| x2
A---6-6-6-x-x--9-9-9--xx--4-4-4--x-x--4-4-4--x-x--|
E--------------7-7-7--xx--2-4-4--x-x--2-2-2--x-x--|

e--------------------------------------|
B--------------------------------------|
G---4-4-4---8-8-8--xx------------------|
D---6-6-6---9-9-9--xx--4-4-4s6-6-6-----| x4
A---6-6-6---9-9-9--xx--4-4-4s6-6-6-----|
E-----------7-7-7--xx--2-4-4s4-4-4-----|

Verse3:

e--------------------------------------|
B--------------------------------------|
G---4-4-4---8-8-8--xx------------------|
D---6-6-6---9-9-9--xx--4-4-4s6-6-6-----| x3
A---6-6-6---9-9-9--xx--4-4-4s6-6-6-----|
E-----------7-7-7--xx--2-4-4s4-4-4-----|

e-----------------------------2-2---|
B-----------------------------2-2---|
G---4-4-4---8-8-8--xx---------3-3---|
D---6-6-6---9-9-9--xx--4-4-4--4-4---|
A---6-6-6---9-9-9--xx--4-4-4--4-4---|
E-----------7-7-7--xx--2-4-4--2-2---|

Chorus:

e----------------11-11-11----------------------------|
B---12-12-12--x--12-12-12--11-11-11--14-14-14-14-----|
G---13-13-13--x--11-11-12--11-11-11--13-13-13-13-----|
D---13-13-13--x------------11-11-11------------------| x11
A----------------------------------------------------|
E----------------------------------------------------|

Outro:

e----------------11-11-11--------|
B---12-12-12--x--12-12-12--11----|
G---13-13-13--x--11-11-12--11----|
D---13-13-13--x------------11----|
A--------------------------------|
E--------------------------------|

            
            
Suggest correction
Creating personal tab
Creating personal tab
You can edit any tab online and save it as your Personal.

You can edit, replace or remove any tab part or add personal notes – all changes will be seen only by you.

Personal tabs can be accessed anytime from any device, even offline.
Learn more »
Give kudos to tab author, rate the tab!
1 2 3 4 5
comments
print report bad tab
2 comments total.
0 reply
Marko1231 10 Oct 22, 2010 01:28 PM

Do you even know how the song SOUNDS like?
This is barely close!

Don't post something before checking it actually matches the song...

0 reply
Marko1231 10 Oct 22, 2010 01:29 PM

Intro
-------

|----------------------------------------------|---------------------------14-----------14---------|
|--10-------10---------14----------14----------|--12----------12-----------------------------------|
|-----11----------11---------14----------14----|--------13----------13-----------13-----------13---|
|--------11----11---------14----14----14----14-|-----14----14----14----14-----14----14-----14------|
|----------------------------------------------|---------------------------------------------------|
|----------------------------------------------|---------------------------------------------------|

|----------------------------------------------|---------------------------------------------------|
|--10-------10---------14----------14----------|--12-----------------------------------------------|
|-----11----------11---------14----------14----|--13-----------------------------------------------|
|--------11----11---------14----14----14----14-|--14-----------------------------------------------|
|----------------------------------------------|---------------------------------------------------|
|----------------------------------------------|---------------------------------------------------|

guest
You may want to rate the tab now too:
select rating
Wanna post a correction for this tab? Suggest correction