Oops, an error
Loading. Please wait.

She Looks To Me tab

version 4
version 4
3,237 views 3 this week
6 commentsread comments
1 2 3 4 5
x 7
add to favorites
×
Save as Personal and add changes to this tab that will be seen only by you. Learn more ›
×
You can save this tab as Personal to edit and correct it or add notes. All changes will be seen only by you. Learn more »
launch autoscroll
font size
0
reset
how to read this tab
guitar tuner
backing track
0:00
0:00
edit
Autoscroll
slow
fast
+/-
esc
set tempo
stop
Author
Standerd Tuning: EADGBe

Intro:

e|-----------------------------------------------------|
B|--10-----10----14--14----12----12---14--14-----------|
G|----11-----11----14--14----13----13---13--13---------|
D|------11---------------------14----------------------|
A|-----------------------------------------------------|
E|-----------------------------------------------------|

e|-------------------------|
B|--10-----10----14--14----|
G|----11-----11----14--14--|
D|------11-----------------|
A|-------------------------|
E|-------------------------|

e|----|
B|-12-|
G|-13-|
D|-14-|
A|----|
E|----|


1st Verse: With small distortion
I haven't put the rhythm in. On the last on end on the G chord.

e|--5--x--3--1--|
B|--5--5--3--1--|
G|--6--5--4--2--| x6
D|--7--5--5--3--|
A|--7--3--5--3--|
E|--5--x--3--1--|

Chorus:

e|--------------------------------------------14-14-14-14---|
B|--10--10--x--14-14-14-14--x--12-12-12-12-x--14-14-14-14---|
G|--11--11--x--14-14-14-14--x--13-13-13-13-x--14-14-14-14---| x3
D|--11--11--x--14-14-14-14--x--14-14-14-14-x----------------|
A|----------------------------------------------------------|
E|----------------------------------------------------------|

It then ends with:

e|----------------------------------|
B|--10--10--x--14-14-14-14--x--12---|
G|--11--11--x--14-14-14-14--x--13---| 
D|--11--11--x--14-14-14-14--x--14---|
A|----------------------------------|
E|----------------------------------|


Repeat 1st Verse:

e|--5--x--3--1--|
B|--5--5--3--1--|
G|--6--5--4--2--| x4
D|--7--5--5--3--|
A|--7--3--5--3--|
E|--5--x--3--1--|


Repeat Chorus: Exactly the same.


Interlude:

e|--5-5-5-5---x-x-x-x---x--x--x--x--x--x--x--x---------|
B|--5-5-5-5---5-5-5-5---10-10-10-10-10-10-10-10--------|
G|--6-6-6-6---5-5-5-5---10-10-10-10-10-10-10-10--------| x2
D|--7-7-7-7---5-5-5-5---10-10-10-10-10-10-10-10--------|
A|--7-7-7-7---3-3-3-3---8--8--8--8--8--8--8--8---------|
E|--5-5-5-5---x-x-x-x---x--x--x--x--x--x--x--x---------|


Solo:
With Chorus in Background

e|-----------------------------------------(12)----------------(17)---|
B|-------------------(10)---------------------------------------------|
G|----(9)-------------------------------------------------------------|
D|--------------------------------------------------------------------|
A|--------------------------------------------------------------------|
E|--------------------------------------------------------------------|



Repeat 1st Verse:


Repeat Chorus:


Then Chorus 2 (below):

e|---------------------------------------------16-16-16-16---------|
B|--13--13--x--16-16-16-16--x--14-14-14-14--x--16-16-16-16---------|
G|--14--14--x--16-16-16-16--x--15-15-15-15--x--16-16-16-16---------| x8
D|--14--14--x--16-16-16-16--x--16-16-16-16--x----------------------|
A|-----------------------------------------------------------------|
E|-----------------------------------------------------------------|
Suggest correction
Creating personal tab
Creating personal tab
You can edit any tab online and save it as your Personal.

You can edit, replace or remove any tab part or add personal notes – all changes will be seen only by you.

Personal tabs can be accessed anytime from any device, even offline.
Learn more »
comments
print report bad tab
6 comments total. Showing first comments.
0 reply
dansa 80 Dec 04, 2006 08:33 AM

you missed at the intro

0 reply
rustymoore91 488 Dec 04, 2006 09:44 AM

check my power tab!

+1 reply
kittuvarma 10 Aug 19, 2007 04:59 AM

dude u suk ass, hahaha jks me ruv u rong time:P
cya tomorrow at practise, its gonna be awesome:P

guest
You may want to rate the tab now too:
select rating
Wanna post a correction for this tab? Suggest correction