Oops, an error
Loading. Please wait.

Shes Only 18 tab

version 1
version 1

Whole song

Interactive

Video

9,080 views 3 this week
6 commentsread comments
1 2 3 4 5
x 13
add to favorites
×
Save as Personal and add changes to this tab that will be seen only by you. Learn more ›
×
You can save this tab as Personal to edit and correct it or add notes. All changes will be seen only by you. Learn more »
launch autoscroll
font size
0
reset
how to read this tab
guitar tuner
backing track
0:00
0:00
edit
Autoscroll
slow
fast
+/-
esc
set tempo
stop
Author
Verse

Riff A

e --------------------/------------------|
B --------------------/------------------|
G ------3h5p3----3----/-------3h5p3---3--|
D ---3h5------h5---5--/---3h5-------h5---|
A --------------------/------------------|
E --------------------/------------------|

Riff B

e -------6h8p6----6---/------6h8p6----6-|
B ---6h8-------h8---8-/--6h8-------h8---|
G --------------------/-----------------|
D --------------------/-----------------|
A --------------------/-----------------|
E --------------------/-----------------|


Verse structure:

Riff A  x8
Riff B  x4
Riff A  x2

Chorus:

   C min   D# maj      G min     F maj

e --3--------------/----3-----------1--------|
B --4---------8----/----3-----------1--------|
G --5---------8----/----3-----------2--------|
D --5---------8----/----5-----------3--------|
A --3---------6----/----5-----------3--------|
E -----------------/----3-----------1--------|


e --------/-----------------------------------
B ---11---/--13-------------------------------
G ---12---/--14-------------------------------
D --------/-----------------------------------
A --------/-----------------------------------
E --------/-----------------------------------

Tabbed by rhcpdoyle
ishootpidgeons@hotmail.co.uk
Suggest correction
Creating personal tab
Creating personal tab
You can edit any tab online and save it as your Personal.

You can edit, replace or remove any tab part or add personal notes – all changes will be seen only by you.

Personal tabs can be accessed anytime from any device, even offline.
Learn more »
comments
print report bad tab
6 comments total. Showing first comments.
0 reply
METSOAD 1,622 May 16, 2006 10:37 PM

This is basically it, apart from the solo chord which are
|3-1-1-5 |3-1-1
|4-3-1-4 |4-3-1
|5-3-4-5 X3 |5-3-4
|5-3-3-5 |5-3-3
|3-1-3-3 |3-1-3 Last Time
|----1-- |----1

0 reply
togahockey15 10 Jul 25, 2006 05:06 PM

qweqw

0 reply
master of music 243 Aug 03, 2006 01:38 AM

is it somthin like this at the start
|---------------|
|---------------|
|-5-5-5-5-5-5-5-|
|-3-3-3-3-3-3-3-|
|---------------|
|---------------|
PM . . . . . . .

with effects????

guest
You may want to rate the tab now too:
select rating
Wanna post a correction for this tab? Suggest correction