Oops, an error
Loading. Please wait.

Shes Only 18 tab

version 2
version 2

Whole song

Interactive

Video

25,671 views 18 this week
4 commentsread comments
1 2 3 4 5
x 10
add to favorites
×
Save as Personal and add changes to this tab that will be seen only by you. Learn more ›
×
You can save this tab as Personal to edit and correct it or add notes. All changes will be seen only by you. Learn more »
launch autoscroll
font size
0
reset
how to read this tab
guitar tuner
backing track
0:00
0:00
edit
Autoscroll
slow
fast
+/-
esc
set tempo
stop
This is one of my favourites from Stadium Arcadium, and isnt to hard to play either 
the solo!). If you have a wah pedal, it may come in handy for the verses, but it still 
good without. Enjoy!

|| SHE'S ONLY 18 ||
|| RED HOT CHILI PEPPERS ||
|| STADIUM ARCADIUM ||

BASS INTRO

Followed by

VERSE

       Gm                Gm
|-----------------|---------------|
|-----------------|---------------|
|-------3h5--3----|-------3h5--3--|
|--3h5---------5--|--3h5----------|   x4
|-----------------|---------------|
|-----------------|---------------|

She’s only 18
Don't like the Rolling Stones
She took the shortcut
To being fully grown
She got the mood ring
A little sister rose
A smell of Springsteen
A pair of pantyhoes

|-------6h8p6----6---/------6h8p6----6-|
|---6h8-------h8---8-/--6h8-------h8---|
|--------------------/-----------------|
|--------------------/-----------------|   x2
|--------------------/-----------------|
|--------------------/-----------------|

This talking picture show
Is leaking from a silhouette
She said my man you know
It's time to get your fingers wet

|-----------------|---------------|
|-----------------|---------------|
|-------3h5--3----|-------3h5--3--|
|--3h5---------5--|--3h5----------|   x2
|-----------------|---------------|
|-----------------|---------------|

You hustle's busted when
You can't afford a cigarette
The last I heard from you
You were screaming "Handle It!"

CHORUS

 C5         Eb5
Knock the world
              G5
Right of its feet and
          F5
Straight unto its head
 C5         Eb5
Oompala
              G5
They’re only laughing after
 F5
You are dead
 C5         Eb5
Fascinated
        G5
By the look of you
     F5
And what was said
 C5         Eb5
Make a play
               Eb7
For all the brightest minds
                D
And light will shed

VERSE

       Gm                Gm
|-----------------|---------------|
|-----------------|---------------|
|-------3h5--3----|-------3h5--3--|
|--3h5---------5--|--3h5----------|   x4
|-----------------|---------------|
|-----------------|---------------|

I heard some P-Funk
Out on the road again
To get your head shrunk
Is what I recommend
It's in your bloodline
A perfect Frankenstein
Out on the lone kind
I'm gonna make you mine


|-------6h8p6----6---/------6h8p6----6-|
|---6h8-------h8---8-/--6h8-------h8---|
|--------------------/-----------------|
|--------------------/-----------------|   x2
|--------------------/-----------------|
|--------------------/-----------------|

It's understood you wrap your
Voodoo right around my neck
You got some glitter on your
Kitty at the discotheque

|-----------------|---------------|
|-----------------|---------------|
|-------3h5--3----|-------3h5--3--|
|--3h5---------5--|--3h5----------|   x2
|-----------------|---------------|
|-----------------|---------------|

I'll put my loving in your oven
Not a head to check
The last I heard from you
You were screaming "Resurrect!"


CHORUS

 C5         Eb5
Knock the world
              G5
Right of its feet and
          F5
Straight unto its head
 C5         Eb5
Oompala
              G5
They’re only laughing after
 F5
You are dead
 C5         Eb5
Fascinated
        G5
By the look of you
     F5
And what was said
 C5         Eb5
Make a play
               Eb7
For all the brightest minds
                D
And light will shed

SOLO

(If you cannot play the solo, just play these chords over, as these are the backing chords)

Cm Bb F Cm X3

E|-------------------------------------------------------------|
B|-------------------------------------------------------------|
G|-------------------------------------------------------------|
D|---------1-3/5--1--3-1h3--------1-3/5--1-3-1-----------------|
A|----1/3---------------------1-3------------------------------|
E|-------------------------------------------------------------|

E|-------------------------------------------------------------|
B|---------------------------4b-------------6b7-4h6------------|
G|------3-5-3-5----------3-5----5------3-5---------------------|
D|--3/5--------------3/5---------------------------------------|
A|-------------------------------------------------------------|
E|-------------------------------------------------------------|

E|--------6----6-8---------------------------------------------|
B|---6/8-----8------8p6/4---6-6p4---4--6/8--6--6--4------------|
G|----------------------------------5--------------------------|
D|-------------------------------------------------------------|
A|-------------------------------------------------------------|
E|-------------------------------------------------------------|

E|-------------------------------------------------------------|
B|--6-6-6-6p4--6-6p4--6-6p4--6-6p4--6-6p4----------------------|
G|-------------------------------------------------------------|
D|-------------------------------------------------------------|
A|-------------------------------------------------------------|
E|-------------------------------------------------------------|

E|------------10b11--8v-------------x----13b15r13b15r13b15-----|
B|--6-4-6/8-8--------------------------------------------------|
G|-------------------------------------------------------------|
D|-------------------------------------------------------------|
A|-------------------------------------------------------------|
E|-------------------------------------------------------------|

E|--13b15-13p11-13---13/15--18~~-18/15-------------------------|
B|--------------------------------------18p16--18-18-18p16-----|
G|---------------------------------------------------------17--|
D|-------------------------------------------------------------|
A|-------------------------------------------------------------|
E|-------------------------------------------------------------|

E|----------19-------------------------------------------------|
B|-16-18b19-------19r18--18/16-18-18-18-16-----17~-------------|
G|------------------------------------------17-----------------|
D|-------------------------------------------------------------|
A|-------------------------------------------------------------|
E|-------------------------------------------------------------|

CHORUS

 C5         Eb5
Knock the world
              G5
Right of its feet and
          F5
Straight unto its head
 C5         Eb5
Oompala
              G5
They’re only laughing after
 F5
You are dead
 C5         Eb5
Fascinated
        G5
By the look of you
     F5
And what was said
 C5         Eb5
Make a play
               Eb7
For all the brightest minds
                D
And light will shed


That's it, please rate/comment.

            
            
Suggest correction
Creating personal tab
Creating personal tab
You can edit any tab online and save it as your Personal.

You can edit, replace or remove any tab part or add personal notes – all changes will be seen only by you.

Personal tabs can be accessed anytime from any device, even offline.
Learn more »
comments
print report bad tab
4 comments total. Showing first comments.
0 reply
little_black 10 May 24, 2006 02:30 AM

orright tab, looks like a combination of the alreadyonthesite tab, and the solo. and lyrics correction. 'Oompala' is actually 'The Book of Love'. But whatever floats ya boat mate.

0 reply
METSOAD 1,632 May 24, 2006 12:17 PM

a combination tab, its a good one cause it is the first one to include that fabulous guitar solo

0 reply
duffmansweenie 54 May 24, 2006 08:24 PM

lol...oompala, whats were you thinking

guest
You may want to rate the tab now too:
select rating
Wanna post a correction for this tab? Suggest correction