Oops, an error
Loading. Please wait.

Show Me Your Soul tab

version 1
version 1

Whole song

  • I have the correct SOLO, chorus ending chord voici... Show more

Interactive

9,025 views 9 this week
2 commentsread comments
1 2 3 4 5
x 5
add to favorites
×
Save as Personal and add changes to this tab that will be seen only by you. Learn more ›
×
You can save this tab as Personal to edit and correct it or add notes. All changes will be seen only by you. Learn more »
launch autoscroll
font size
0
reset
how to read this tab
guitar tuner
edit
Autoscroll
slow
fast
+/-
esc
set tempo
stop
Author
Show Me Your Soul Tab

INTRO:
E-|-------|--12-|--15--|
B-|-10----|--12-|--15--|
G-|-10----|-----|------|
D-|-10----|-----|------|
A-|-------|-----|------|
E-|-10----|-----|------|


VERSE 1:
E-|-------------------------------------|
B-|-20--x--19--x--20--x--19--x--17--19--|
G-|-17--x--17--x--17--x--17--x--17--17--|
D-|-------------------------------------|
A-|-------------------------------------|
E-|-------------------------------------|

E-|---------------------------------|
B-|-20--x--19--x--20--x--19--x--17--|
G-|-17--x--17--x--17--x--17--x--17--|
D-|---------------------------------|
A-|---------------------------------|
E-|---------------------------------|


END VERSE 1:

E-|-20-20-20-20-20-20-20-20--|
B-|-19-19-19-19-19-19-19-19--|
G-|-19-19-19-19-19-19-19-19--|
D-|--------------------------|
A-|--------------------------|
E-|--------------------------|


2nd END VERSE 1:

E-|--15(f)---|
B-|----------|
G-|----------|
D-|----------|
A-|----------|
E-|----------|


VERSE PART 2:
E-|-5------5--5----|--5-------------7--7-------|
B-|-5------5--5----|--5------x-x-x--5--5-------|
G-|-5------5--5----|--5------x-x-x--5--5-------|
D-|----------------|---------------------------|
A-|----------------|---------------------------|
E-|----------------|---------------------------|


CHORUS:
E-|--------------------------------|--8--x-x-x-x--8/10/8--------------|
B-|----x-x-x-x---------------------|--8--x-x-x-x--8-------------------|
G-|-7--x-x-x-x--7/10/7-------------|----------------------------------|
D-|-7--x-x-x-x--7------------------|----------------------------------|
A-|--------------------------------|-----------------------------12---|
E-|---------------------------10---|----------------------------------|


END CHORUS:
E-|-3--|--1--|--6--|
B-|-3--|--1--|--6--|
G-|-3--|--2--|--7--|
D-|-5--|--3--|--8--|
A-|----|-----|-----|
E-|----|-----|-----|


INTERLUDE:
E-|----------------|-----------------|-----------------|-----------------|-----------------|
B-|-6-6----6-6-----|--6-6----6-6-----|--6-6----6-6-----|--6-6----6-6-----|--6-6----6-6-----|
G-|-5-5----5-5-----|--5-5----5-5-----|--5-5----5-5-----|--5-5----5-5-----|--5-5----5-5-----|
D-|-5-5----5-5-----|--5-5----5-5-----|--5-5----5-5-----|--5-5----5-5-----|--5-5----5-5-----|
A-|----------------|-----------------|-----------------|-----------------|-----------------|
E-|----------------|-----------------|-----------------|-----------------|-----------------|

E-|----------------|-----------------|-------------------------|
B-|-6-6----6-6-----|--6-6----6-6-----|--6-6-6-6-6-6-6-6--------|
G-|-5-5----5-5-----|--5-5----5-5-----|--5-5-5-5-5-5-5-5--------|
D-|-5-5----5-5-----|--5-5----5-5-----|--5-5-5-5-5-5-5-5--------|
A-|----------------|-----------------|-------------------------|
E-|----------------|-----------------|-------------------------|


SOLO 1:

main guitar:
E-|------------------------------*---------|---------------------------*---------------------|
B-|------------------------------*---------|---------------------------*---------------------|
G-|----------------------------------------|-------------------------------------------------|
D-|----------------------------------------|-------------------------------------------------|
A-|-(5)/7--5/7--4--5-----------------------|--(5)/7--5/7--4--5-------------------5-----------|
E-|-----------------------(4)/3----5-------|---------------------------5--3/5--/7-----7------|


guitar 2:
E-|-3-3-3-3-3-3-3-3--|--3-3-3-3-3-3-3-3--|--3-3-3-3-3-3-3-3--|-6-6-6-6-6-6-6-6--|
B-|-3-3-3-3-3-3-3-3--|--3-3-3-3-3-3-3-3--|--3-3-3-3-3-3-3-3--|-6-6-6-6-6-6-6-6--|
G-|------------------|-------------------|-------------------|------------------|
D-|------------------|-------------------|-------------------|------------------|
A-|-------*part 1----|-------*part 2-----|------*part 3------|-------*part 
4----|
E-|------------------|-------------------|-------------------|------------------|


END SOLO 1:
E-|-----------------------------------|-------------------|---------|
B-|-----------------------------------|-------------------|---------|
G-|-----------------------------------|-------------------|---------|
D-|-----------------------------------|-------------------|---------|
A-|-(5)/7--5/7--4--5------------------|--5----5--6--7-----|--15/----|
E-|-----------------------(4)/3--5----|-------------------|--15/----|


SOLO 2:

first part:
E-|-19/19(h)--19/20/19/17--|--19/19(h)---17(f)/17--16/16(h)--|
B-|------------------------|---------------------------------|
G-|------------------------|---------------------------------|
D-|------------------------|---------------------------------|
A-|------------------------|---------------------------------|
E-|------------------------|---------------------------------|


second part:
E-|---------------------------------------|---------------------------------------|
B-|-15-----------------x-x-x-x-x-x--------|--15----------------x-x-x-x-x-x--------|
G-|-----12-------------x-x-x-x-x-x--------|------12------------x-x-x-x-x-x--------|
D-|----------14(f)-----x-x-x-x-x-x--------|-----------14(f)----x-x-x-x-x-x--------|
A-|---------------------------------------|---------------------------------------|
E-|---------------------------------------|---------------------------------------|

E-|-----------------------------|-------------|--17(f)-----17(f)--17(f)-17(f)---17(f)-------17--|
B-|-----------------------15----|-x-x-x-x-x-x-|-------------------------------------------------|
G-|-14--11--14--11-------14(q)--|-x-x-x-x-x-x-|-------------------------------------------------|
D-|-----------------------------|-x-x-x-x-x-x-|-------------------------------------------------|
A-|-----------------------------|-------------|-------------------------------------------------|
E-|-----------------------------|-------------|-------------------------------------------------|

E-|--17/17(f)--17/15/17--x-x-x-x-x-x--|
B-|----------------------x-x-x-x-x-x--|
G-|----------------------x-x-x-x-x-x--|
D-|-----------------------------------|
A-|-----------------------------------|
E-|-----------------------------------|

E-|------------------------------------------|-------------------------------------------|
B-|------------------------------------------|-------------------------------------------|
G-|------------------------------------------|-------------------------------------------|
D-|------------------------------------------|-------------------------------------------|
A-|-12(h)/12/10/12/10------------------------|--12(h)/12/10/12/10------------------------|
E-|-------------------------12---3--/12--12--|--------------------------12---3--/12--12--|

E-|--------------------------------------------------------------------------|
B-|--------------------------------------------------------------------------|
G-|--------------------------------------------------------------------------|
D-|--------------------------------------------------------------------------|
A-|-12(h)/12/10/12/10-------12/10/12/10/12/10/12/10/12/10/12/10/12/10/12/10--|
E-|----------------------------12--------------------------------------------|

E-|---------------------------------|---------|--------------------------------|
B-|---------------------------------|---------|--------------------------------|
G-|---------------------------------|---------|--14/14(f)--/14--12--14--14-14--|
D-|-11/11(h)--x-x--12/12(h)--12-12--|-x-x-x-x-|--------------------------------|
A-|---------------x-x---------------|-x-x-x-x-|--------------------------------|
E-|---------------------------------|---------|--------------------------------|

E-|-----------------------------------------------------------------------------|
B-|-15-15-15-15-15-15-15-15-15-15-15-15-15-15-15-15-15-15-15-15-15-15-15-15-15--|
G-|-----------------------------------------------------------------------------|
D-|-----------------------------------------------------------------------------|
A-|-----------------------------------------------------------------------------|
E-|-----------------------------------------------------------------------------|


E-|-----------------------|
B-|-15-15-15-15-15-15-15--|
G-|-----------------------|
D-|-----------------------|
A-|-----------------------|
E-|-----------------------|

E-|-----------------------------------------------|
B-|-17----15----12-----------------------12-------|
G-|---------------------14----12----14------------|
D-|-------------------------------------------14--|
A-|-----------------------------------------------|
E-|-----------------------------------------------|

E-|---------------------------------------|
B-|---------------------------------------|
G-|---------------------------------------|
D-|---------------------------------------|
A-|-12(h)----12----10/12/10/12(h)--12(h)--|
E-|---------------------------------------|




----------------------------------------------------------------------------------



Format of the song:


- Intro.

- Verse 1 (4 times).

- End Verse.

(singing starts)

- Verse 1 (2 times).

- End Verse.

- Verse 2 (4 times).

- Chorus (3 times).

- End Chorus.


- Verse 1 (2 times).

(singing starts)

- Verse 1 (2 times).

- End Verse.

- Verse 2 (4 times).

- Chorus (3 times).

- End Chorus.


- Interlude.

- Solo 1 (3 times) - play the 3 different
parts, one after the other, at the *.

- End Solo 1.

- Verse 1 (2 times).

- 2nd End Verse 1.

(singing starts)

- Verse 1 (2 times).

- Verse 2 (4 times).

- Chorus (3 times).

- End Chorus.


- Interlude with First Part Solo 2.

- Solo 1 (14 times) with Second Part Solo 2.


(Fade out)


            
            
Suggest correction
Creating personal tab
Creating personal tab
You can edit any tab online and save it as your Personal.

You can edit, replace or remove any tab part or add personal notes – all changes will be seen only by you.

Personal tabs can be accessed anytime from any device, even offline.
Learn more »
comments
print report bad tab
2 comments total.
0 reply
atl1192 10 Dec 31, 2008 02:42 PM

finally i been wanting to learn this! good job!

0 reply
GuitarGuroo 59 Aug 03, 2016 02:59 AM

I added a few corrections for you Bro. NICE TAB!

guest
You may want to rate the tab now too:
select rating
Wanna post a correction for this tab? Suggest correction