Oops, an error
Loading. Please wait.

Sick Love tab

version 2
version 2

Whole song

Video

37,168 views 306 this week
8 commentsread comments
1 2 3 4 5
x 30
add to favorites
×
Save as Personal and add changes to this tab that will be seen only by you. Learn more ›
×
You can save this tab as Personal to edit and correct it or add notes. All changes will be seen only by you. Learn more »
launch autoscroll
font size
0
reset
how to read this tab
guitar tuner
backing track
0:00
0:00
edit
Autoscroll
slow
fast
+/-
esc
set tempo
stop
Author
                                      
                                     [INTRO]

[Guitar 1 Clean+Neck Position]

               Am           D                   G                      Em           
e|------------------------------------------------------7--6/7-7----7--7--7--7----|
B|---------------5------7------7-----7------------------7--6/7-7----8--8--8--8----|
G|---------------5------7------7-----7h9p7--------------7--6/7-7----9--9--9--9----|
D|---------------5------7------7-----7-----9p7------------------------------------|
A|---------3h5/7-----7/9-----9-----9-----------10~--------------------------------|
E|--12\---------------------------------------------------------------------------|

              Am            D            G                Em
e|-----------------------------------------------------7--7--7--7--------|
B|---------------5------7------7-----7-----------------8----8--8--8------|
G|---------------5------7------7-----7h9p7-------------9------9--9--9~\--|
D|---------------5------7------7-----7-----9p7---------------------------|
A|---------3h5/7-----7/9-----9-----9-------------------------------------|
E|--x-x\-----------------------------------------0~~---------------------|


                                     [VERSE 1]

[Guitar 1 Clean+Neck Position](0:15)

               Am           D                   G                      Em           
e|------------------------------------------------------7--6/7-7----7--7--7--7----|
B|---------------5------7------7-----7------------------7--6/7-7----8--8--8--8----|
G|---------------5------7------7-----7h9p7--------------7--6/7-7----9--9--9--9----|
D|---------------5------7------7-----7-----9p7------------------------------------|
A|---------3h5/7-----7/9-----9-----9-----------10~--------------------------------|
E|--12\---------------------------------------------------------------------------|

              Am            D            G                Em                                    x2
e|-----------------------------------------------------7--7--7--7--------|
B|---------------5------7------7-----7-----------------8----8--8--8------|
G|---------------5------7------7-----7h9p7-------------9------9--9--9~\--|
D|---------------5------7------7-----7-----9p7---------------------------|
A|---------3h5/7-----7/9-----9-----9-------------------------------------|
E|--x-x\-----------------------------------------0~~---------------------|


                                    [PRE-CHORUS]

[Guitar 1 Clean+Reverb](0:41)

        G              Am          D           G                 C                  D
e|-------7-------------------------------------7-------------------8---------------10------------|
B|-----8----8------------10-------7----------8---8---10-7--------8---8---8------10----10----10---|
G|---7--------7-7/9----9--------7----7-----7-------7--------9~---------9---9/11----------11------|
D|-------------------10-------7--------7---------------------------------------------------------|
A|-----------------------------------------------------------------------------------------------|
E|-----------------------------------------------------------------------------------------------|
           
           Em                                                                                   
e|-----7--7--7--7--------|
B|-----8----8--8--8------|
G|-----9------9--9--9~\--|
D|-----------------------|
A|-----------------------|
E|-----------------------|

                                      [VERSE 2]

[Guitar 1 Clean+Neck Position](0:54)

               Am           D                   G                      Em           
e|------------------------------------------------------7--6/7-7----7--7--7--7----|
B|---------------5------7------7-----7------------------7--6/7-7----8--8--8--8----|
G|---------------5------7------7-----7h9p7--------------7--6/7-7----9--9--9--9----|
D|---------------5------7------7-----7-----9p7------------------------------------|
A|---------3h5/7-----7/9-----9-----9-----------10~--------------------------------|
E|--12\---------------------------------------------------------------------------|
            Am              D                 Em                                                 x2
e|-----------------------------------------------------7--7--7--7--------|
B|---------------5------7------7-----7-----------------8----8--8--8------|
G|---------------5------7------7-----7h9p7-------------9------9--9--9~\--|
D|---------------5------7------7-----7-----9p7---------------------------|
A|---------3h5/7-----7/9-----9-----9-------------------------------------|
E|--x-x\-----------------------------------------0~~---------------------|


                                          [CHORUS] 

[Guitar 1](1:07)

       Am     C    D          G           C              Am            D                    Em             
e|--8--8---8--8---------------7--7-x-7--7--8--8--x--8------------------------------------7-----7-----7--|
B|-10-10--10--8--7--7--x--7---8--8-x-8--7--5--8--x--5---10--10---10--8-7--7-x-7--------8-----8-----8----|
G|--9--9---9--9--7--7--x--7---7--7-x-7--7--5--5--x--5----9---9----9----7--7-x-7------9-----9-----9------|
D|---------------7--7--x--7-----------------------------10--10---10----7--7-x-7-------------------------|
A|---------------5--5--x--5--------------------------------------------5--5-x-5-------------------------|
E|-------------------------------------------------------------------------------0~---------------------|
                                                                                                           x2
       Am     C    D          G           C              Am            D         Em                       
e|--8--8---8--8---------------7--7-x-7--7--8--8--x--8-----------------------------7---|
B|-10-10--10--8--7--7--x--7---8--8-x-8--7--5--8--x--5---10--10---10--8-7--7-x-7---8---|
G|--9--9---9--9--7--7--x--7---7--7-x-7--7--5--5--x--5----9---9----9----7--7-x-7---9---|
D|---------------7--7--x--7-----------------------------10--10---10----7--7-x-7---9---|
A|---------------5--5--x--5--------------------------------------------5--5-x-5---7---|
E|------------------------------------------------------------------------------------|
                                         [VERSE 3]

[Guitar 1 Clean+Neck Position](1:31)

               Am           D                   G                      Em           
e|------------------------------------------------------7--6/7-7----7--7--7--7----|
B|---------------5------7------7-----7------------------7--6/7-7----8--8--8--8----|
G|---------------5------7------7-----7h9p7--------------7--6/7-7----9--9--9--9----|
D|---------------5------7------7-----7-----9p7------------------------------------|
A|---------3h5/7-----7/9-----9-----9-----------10~--------------------------------|
E|--12\---------------------------------------------------------------------------|
                Am           D                           Em                                             x2
e|-----------------------------------------------------7--7--7--7--------|
B|---------------5------7------7-----7-----------------8----8--8--8------|
G|---------------5------7------7-----7h9p7-------------9------9--9--9~\--|
D|---------------5------7------7-----7-----9p7---------------------------|
A|---------3h5/7-----7/9-----9-----9-------------------------------------|
E|--x-x\-----------------------------------------0~~---------------------|
                                  
                                      [PRE-CHORUS] 

[Guitar 1 Clean+Reverb](1:57)

         G             Am         D            G                  C                D
e|-------7-------------------------------------7-------------------8---------------10------------|
B|-----8----8------------10-------7----------8---8---10-7--------8---8---8------10----10----10---|
G|---7--------7-7/9----9--------7----7-----7-------7--------9~---------9---9/11----------11------|
D|-------------------10-------7--------7---------------------------------------------------------|
A|-----------------------------------------------------------------------------------------------|
E|-----------------------------------------------------------------------------------------------|
   
           Em                                                                                           
e|-----7--7--7--7--------|
B|-----8----8--8--8------|
G|-----9------9--9--9~\--|
D|-----------------------|
A|-----------------------|
E|-----------------------|
                                          [CHORUS] 

[Guitar 1](2:10)
       Am     C    D          G           C              Am            D                    Em             
e|--8--8---8--8---------------7--7-x-7--7--8--8--x--8------------------------------------7-----7-----7--|
B|-10-10--10--8--7--7--x--7---8--8-x-8--7--5--8--x--5---10--10---10--8-7--7-x-7--------8-----8-----8----|
G|--9--9---9--9--7--7--x--7---7--7-x-7--7--5--5--x--5----9---9----9----7--7-x-7------9-----9-----9------|
D|---------------7--7--x--7-----------------------------10--10---10----7--7-x-7-------------------------|
A|---------------5--5--x--5--------------------------------------------5--5-x-5-------------------------|
E|-------------------------------------------------------------------------------0~---------------------|
                                                                                                           
       Am     C    D          G           C              Am            D         Em                       
e|--8--8---8--8---------------7--7-x-7--7--8--8--x--8-----------------------------7---|
B|-10-10--10--8--7--7--x--7---8--8-x-8--7--5--8--x--5---10--10---10--8-7--7-x-7---8---|
G|--9--9---9--9--7--7--x--7---7--7-x-7--7--5--5--x--5----9---9----9----7--7-x-7---9---|
D|---------------7--7--x--7-----------------------------10--10---10----7--7-x-7---9---|
A|---------------5--5--x--5--------------------------------------------5--5-x-5---7---|
E|------------------------------------------------------------------------------------|

                                        [SOLO]

[Guitar 1 Distortion+Flanger+Reverb](2:34)
e|------------17b19-19r17p15-14-14b15-15r14r12---------------------------------------|
B|--10\0~---------------------------------------15-15h17-15h17p15\13h-12--15/17~~----|
G|-----------------------------------------------------------------------------------|
D|-----------------------------------------------------------------------------------|
A|-----------------------------------------------------------------------------------|
E|-----------------------------------------------------------------------------------|

e|-----------------------------------------------------------------------------------|
B|--15b17r15-------------------------------------------------------------------------|
G|-----------14b16r14~-12b14r12-11h12p11~-9h11p9-------------------12h14p12----------|
D|------------------------------------------------12-12/14~--12h14-----------12h14~--|
A|-----------------------------------------------------------------------------------|
E|-----------------------------------------------------------------------------------|
                         
e|--------------------------------------------------------------------------------------------|
B|--------------------------------------------------------------------------------------------|
G|--------------------------------------------------------------------------------------------|
D|--14-14-14--------10/12~-12-12-12----------9~-9---------------------------------------------|
A|------------14-14-----------------10-10-10----------9h10~-9b10-7b8~-10h12p10-9b10p7---------|
E|-------------------------------------------------10-----------------------------------------| 

e|--------------------------------------------------10----------12~~~---|
B|-------------------------------------8-----7--------------------------|
G|---------------------------------------------9/11----11-11/12---------|
D|---------------------------------7/9---9\7----------------------------|
A|--10h12p10\9-10~~-10h12p10\9-10---------------------------------------|
E|----------------------------------------------------------------------|


Guitars 2 and 3 plays simultaneously (2:36)
[Guitar 2]
e|---------------------------------------------------------------------------|
B|---------------------------------------------------------------------------|
G|--5~~~~----7~~~~----4~~~~----9~~~~~---5~~~~----7~~~~----9~~~~----9~~~------|
D|---------------------------------------------------------------------------|
A|---------------------------------------------------------------------------|
E|---------------------------------------------------------------------------|

[Guitar 3]
e|---------------------------------------------------------------------------|
B|--5~~~~----7~~~~----3~~~~----12~~~~---5~~~~----7~~~~----8~~~~---12~~~~-----|
G|---------------------------------------------------------------------------|
D|---------------------------------------------------------------------------|
A|---------------------------------------------------------------------------|
E|---------------------------------------------------------------------------|

                                          [CHORUS] 

[Guitar 1](3:02)
       Am     C    D          G           C              Am            D                    Em             
e|--8--8---8--8---------------7--7-x-7--7--8--8--x--8------------------------------------7-----7-----7--|
B|-10-10--10--8--7--7--x--7---8--8-x-8--7--5--8--x--5---10--10---10--8-7--7-x-7--------8-----8-----8----|
G|--9--9---9--9--7--7--x--7---7--7-x-7--7--5--5--x--5----9---9----9----7--7-x-7------9-----9-----9------|
D|---------------7--7--x--7-----------------------------10--10---10----7--7-x-7-------------------------|
A|---------------5--5--x--5--------------------------------------------5--5-x-5-------------------------|
E|-------------------------------------------------------------------------------0~---------------------|
                                                                                                           
       Am     C    D          G           C              Am            D         Em                        x4
e|--8--8---8--8---------------7--7-x-7--7--8--8--x--8-----------------------------7---|
B|-10-10--10--8--7--7--x--7---8--8-x-8--7--5--8--x--5---10--10---10--8-7--7-x-7---8---|
G|--9--9---9--9--7--7--x--7---7--7-x-7--7--5--5--x--5----9---9----9----7--7-x-7---9---|
D|---------------7--7--x--7-----------------------------10--10---10----7--7-x-7---9---|
A|---------------5--5--x--5--------------------------------------------5--5-x-5---7---|
E|------------------------------------------------------------------------------------|
************************************

| x   Dead note
| h   Hammer-on
| p   Pull-off
| r   Release
| b   Bend
| br  Bend release
| pb  Pre-bend
| pbr Pre-bend release
| /   Slide up
| \   Slide down
| ~   Vibrato

************************************
Suggest correction
Creating personal tab
Creating personal tab
You can edit any tab online and save it as your Personal.

You can edit, replace or remove any tab part or add personal notes – all changes will be seen only by you.

Personal tabs can be accessed anytime from any device, even offline.
Learn more »
comments
print report bad tab
8 comments total. Showing first comments.
0 reply
avster99 133 Jun 19, 2016 03:21 PM, edited at 07:26 pm

I'm pretty sure the "787" in the verse should be "777."

0 reply
avster99 133 Jun 19, 2016 03:30 PM

And the chorus should start off with 988, hammer to 987, then the D

0 reply
hyslinky 12 Jun 20, 2016 01:17 PM

The 789 should technically be 7899, not a huge deal, but was watching a vid of Josh play it live at iHeartRadio concert and noticed he played it 7899.

guest
You may want to rate the tab now too:
select rating
Wanna post a correction for this tab? Suggest correction