Oops, an error
Loading. Please wait.

Skinny Sweaty Man bass

version 3
version 3

Whole song

Interactive

2,609 views 1 this week
3 commentsread comments
1 2 3 4 5
1 last vote to show rating
add to favorites
×
Save as Personal and add changes to this tab that will be seen only by you. Learn more ›
×
You can save this tab as Personal to edit and correct it or add notes. All changes will be seen only by you. Learn more »
launch autoscroll
font size
0
reset
guitar tuner
edit
Autoscroll
slow
fast
+/-
esc
set tempo
stop
Author
Difficulty
Album: The Uplift Mofo Party Plan
Artist: Red Hot Chili Peppers
Transcirbed By: Jamie McDonald

If you have read "Scar Tissue" than you should know this song
is about Hillel Slovak.
 


Skinny Sweaty Man:



Verse:

G[-----------------------9--]
D[--------5--5------5-------]
A[-5h7-x-------5h7----------]
E[--------------------00----]



Chorus:

G[-7--6---------------------9---]
D[-------9--7----7-8-9-7--------]
A[------------10---------10-----]
E[------------------------------]



Bridge:

G[-------------------------------------------------------7h9p7---]
D[--------------------------------------------------57-9---------]
A[-7--5-7-5--5-----5--3-5-3--3----7--5-7-5--5--------------------]
E[----------7-7-5-----------5-53-----------7-7-5--3--------------]


G[--------------------------------------------------------------]
D[--------------------------------------------------------------]
A[-7--5-7-5----------5--3-5-3--------7--5-7-5--5-----5--353-----]
E[----------7-5-7-5-----------5--3------------7-7-5---------3~~~]

            
            
Suggest correction
Creating personal tab
Creating personal tab
You can edit any tab online and save it as your Personal.

You can edit, replace or remove any tab part or add personal notes – all changes will be seen only by you.

Personal tabs can be accessed anytime from any device, even offline.
Learn more »
Give kudos to tab author, rate the tab!
1 2 3 4 5
comments
print report bad tab
3 comments total.
0 reply
BBQZombies 30 Mar 24, 2008 08:50 PM

the verse riff is actually:

G|--------0---0--------0----9--|
D|-----------------------------|
A|--5h7-x---x----5h7-x---------|
E|-----------------------0-----|

but other than that, it's generally a good tab.

0 reply
sonsie 80 Apr 10, 2008 12:33 AM

yeh bbqzombies is rite

bt also nice tab

0 reply
remix37 10 Feb 04, 2009 12:08 PM

no if you watch closely when flea plays it is G[-----------------------9--]
D[--------5--5------5-------]
A[-5h7-x-------5h7----------]
E[--------------------00----]

guest
You may want to rate the tab now too:
select rating
Wanna post a correction for this tab? Suggest correction