Oops, an error
Loading. Please wait.

Slane Castle Bass Tab

3,448 views 3 this week
no commentswrite comment
1 2 3 4 5
2 more votes to show rating
add to favorites
launch autoscroll
font size
0
reset
guitar tuner
Autoscroll
slow
fast
+/-
esc
set tempo
stop
Help us to improve Ultimate-Guitar.com Take our survey!
×
Difficulty
Tuning
intermediate
D A D G B E
-------------------------------------------------------------------------------
                             LIVE AT SLANE CASTLE INTRO JAM - RED HOT CHILI PEPPERS
-------------------------------------------------------------------------------
Tabbed by: Luuk Verheijden


Tuning: Drop D

G|----------------|------------------|------------------|--------------------|
D|----------------|------------------|------------------|--------------------|
A|-----------/8-7-|5-----------8-10-8|5-----------8h10-8|5-----------10-12-10|
D|----------------|------------------|------------------|--------------------|

G|----------------|--------------------------|----------------------------|
D|----------------|--------------------3--3--|---------------------3-5-3--|
A|5---------------|-------------5--3-5------5|3--3-3--------5--3-5-------5|
D|-----------1-3-0|3--5--0--0-0--------------|-------0--0-0---------------|

G|----------------------------|------------------------------|------------------------------------|
D|---------------------3-3-3--|-3-3-------------------3------|-3----------------------------------|
A|3--3-3--------5--3-5-------5|-----5-3--------5--3-5---5-3-5|---5-3-5------------------------12--|
D|-------0--0-0---------------|---------0--0-0---------------|---------0--0-0-12--12-12-12-14-----|

G|-------------------------------------|-------------------------------------|
D|-------------------------------------|-------------------------------------|
A|12\10----------------------------15--|12\10----------------------------12--|
D|------12--0--0-0-12--12-12-12-14-----|------12--0--0-0-12--12-12-12-14-----|

G|-------------------------------------|-------------------------------------|
D|-------------------------------------|-------------------------------------|
A|12\10----------------------------15--|12\10----------------------------12--|
D|------12--0--0-0-12--12-12-12-14-----|------12--0--0-0-12--12-12-12-14-----|

G|-------------------------------------|-------------------------------------|
D|-------------------------------------|-------------------------------------|
A|12\10----------------------------15--|12\10----------------------------12--|
D|------12--0--0-0-12--12-12-12-14-----|------12--0--0-0-12--12-12-12-14-----|

G|------------------------5-----5|-------------------------------------------|
D|--------------------0-0---3-0--|3-0-0-0-12-12-12-12-10-10-10-10-12-10------|
A|12\10------------5-------------|--------------------------------------12-10|
D|------12--0--0-0---------------|-------------------------------------------|

G|--------------------------------------------|--------------------------------------------|
D|---------12-12-12-12-10-10-10-10-12-10------|---------12-12-12-12-10-10-10-10-12-10------|
A|8-10-8-7-------------------------------12-10|8-10-8-7-------------------------------12-10|
D|--------------------------------------------|--------------------------------------------|

G|--------------------------------------------|----------------------------------|
D|---------12-12-12-12-10-10-10-10-12-10------|----------------------------------|
A|8-10-8-7-------------------------------12-10|8-10-8-7-5------------------------|
E|--------------------------------------------|----------------------------------|


| /  slide up
| \  slide down
| h  hammer-on
| p  pull-off
| ~  vibrato
| +  harmonic
| x  Mute note
===============================================================================
Suggest correction
Give kudos to tab author, rate the tab!
1 2 3 4 5
comments
print report bad tab
guest
You may want to rate the tab now too:
select rating
Wanna post a correction for this tab? Suggest correction