Oops, an error
Loading. Please wait.
We have Chord Pro version of Slow Cheetah.
It's the closest thing you can get to the original song and it has interactive parts. Check out the tab »
×
50,211 views 33 this week
12 commentsread comments
1 2 3 4 5
x 11
add to favorites
×
Save as Personal and add changes to this tab that will be seen only by you. Learn more ›
×
You can save this tab as Personal to edit and correct it or add notes. All changes will be seen only by you. Learn more »
launch autoscroll
font size
0
reset
how to read this tab
guitar tuner
backing track
0:00
0:00
edit
Autoscroll
slow
fast
+/-
esc
set tempo
stop
Author
Difficulty
intermediate
----------------------------------------------------------------------------
          SLOW CHEETAH SOLO - Red Hot Chili Peppers
------------------------------------------------------------------------
Tabbed by: BloodCellZ

Note: The other version of this song is really good but it doesn't have that awesome 
 So I decided to tab it out for u.  I'm 99% sure this is right i'm just not sure about the 
two notes, but they work in the key so wtf!

Tuning: Standard

Start: 3:38
e|----9----------------------------------------------------------------|
B|-------------------------9-11----------------------------------------|
G|-8^---8^--6-8-6~-----8h10-------8^-6-8-8~----------------------------|
D|---------------------------------------------------------------------|
A|---------------------------------------------------------------------|
E|---------------------------------------------------------------------|

e|---------------------------------------------------------------------|
B|-------------------------------9-11----------------------------------|
G|------6-8--8^r-6h8-6-6~---8h10------8^-6--8~-------------------------|
D|-6h8-----------------------------------------------------------------|
A|---------------------------------------------------------------------|
E|---------------------------------------------------------------------|

e|---------------------------------------------------------------------|
B|-------------------------------9-11----------------------------------|
G|-----6-8--8^r-6h8-6-6~---8h10---------8^-6-8-8~----------------------|
D|-6h8-----------------------------------------------------------------|
A|---------------------------------------------------------------------|
E|---------------------------------------------------------------------|

e|---------------------------------------------------------------------|
B|-------------------------------9-11----------------------------------|
G|-----6-8--8^r-6h8-6-6~---8h10---------8^-6-8~------------------------|
D|-6h8-----------------------------------------------------------------|
A|---------------------------------------------------------------------|
E|---------------------------------------------------------------------|



************************************

| h  Hammer-on
| ~  Vibrato

************************************

            
            
Suggest correction
Creating personal tab
Creating personal tab
You can edit any tab online and save it as your Personal.

You can edit, replace or remove any tab part or add personal notes – all changes will be seen only by you.

Personal tabs can be accessed anytime from any device, even offline.
Learn more »
comments
print report bad tab
12 comments total. Showing first comments.
0 reply
BloodCellZ 28 May 30, 2006 10:55 AM

Hey guys, just realized i messed up,
this part:
e|-----------------------------------------------------------------|
B|-----------------------------------------------------------------|
G|-----6-8--8^r-6h8-6-6~--------9-11-------------------------------|
D|-6h8---------------------8h10------8^-6-8~-----------------------|
A|-----------------------------------------------------------------|
E|-----------------------------------------------------------------|

should just change to:
e|------------------------------------------------------------------|
B|-------------------------------9-11----------------------------|
G|-----6-8--8^r-6h8-6-6~---8h10---------8^-6-8-8~------------------|
D|-6h8-------------------------------------------------------------|
A|------------------------------------------------------------------|
E|------------------------------------------------------------------

So for the last to lines when i put 8h10 on the D string, it should be on the G string, 9-11 should be on the B string, and 8^-6-8-8~ should be on the G string.
Sorry guys, i'm not good at proofreading!

0 reply
master of music 243 Jun 22, 2006 10:49 AM

i played it through it didnt sound right so i played them bits on them strings to, apart from that good tab

0 reply
BloodCellZ 28 Jun 23, 2006 03:51 PM

^^^^^ I know, i put one part on the wrong strings, sorry, just look above for correct version.

guest
You may want to rate the tab now too:
select rating
Wanna post a correction for this tab? Suggest correction