Oops, an error
Loading. Please wait.
We have Chord Pro version of Slow Cheetah.
It's the closest thing you can get to the original song and it has interactive parts. Check out the tab »
×
3,292 views 1 this week
no commentswrite comment
1 2 3 4 5
x 3
add to favorites
×
Save as Personal and add changes to this tab that will be seen only by you. Learn more ›
×
You can save this tab as Personal to edit and correct it or add notes. All changes will be seen only by you. Learn more »
launch autoscroll
font size
0
reset
guitar tuner
backing track
0:00
0:00
edit
Autoscroll
slow
fast
+/-
esc
set tempo
stop
Slow Cheetah by red hot chili peppers
from album: Stadium Arcadium
Tabbed By: FLIP

Those who'll steal this tab are such and idiots and suckers.
(sorry for my english), they can't tab the song by themselves and they SUCK!


Bass part 1:(0.35)

G--3~~--1~~--------------------------| 4X
D-----------1~~----------------------|
A------------------------------------|
E---------------2~~------------------|

G-------------------------------------------------|
D------------1~~--4~~-------------1~-1-1111-1-1-1-|
A-1~~---4~~-------------1~~--4~~------------------|
E-------------------------------------------------|

Chorus:

G---------------------------------|
D---------------------------------|
A-9-9~--4-4~--6-------------------|
E---------------6--4--2-----------|

G---------------------------------------------|
D-------------------11h13-13-13-13-13-11------|
A-9-9--4-4-6--11h13----------------------13---|
E---------------------------------------------|

G----------------------------------|
D----------------------------------|
A-9-9~--4-4~--6--------------------|
E---------------6-4-2--------------|

G----------------------------------|
D----------------------------------|
A-9-9~--4-4~~--6-66-6-66666666-----|
E----------------------------------|

after chorus bass part:

G----------------------------------------|
D----------------------------------------|
A-1-1--1-3-44--3-4-66--6-8-99--9-8-6-----|
E----------------------------------------|

another bass part:

G-----------------11h13-11--------------|
D-----6/8-8----------------13-10--------|
A-4---------6---------------------------|
E---------------------------------------|

THAT'S IT...PLEASE RATE THIS ONE:)>>PEACE!
Suggest correction
Creating personal tab
Creating personal tab
You can edit any tab online and save it as your Personal.

You can edit, replace or remove any tab part or add personal notes – all changes will be seen only by you.

Personal tabs can be accessed anytime from any device, even offline.
Learn more »
Give kudos to tab author, rate the tab!
1 2 3 4 5
comments
print report bad tab
guest
Wanna post a correction for this tab? Suggest correction