Oops, an error
Loading. Please wait.

Slow Cheetah Tab

version 6
3,621 views 42 this week
1 commentread comment
1 2 3 4 5
excellent!
x 7
add to favorites
launch autoscroll
font size
0
reset
how to read this tab
guitar tuner
Tab Pro tools
  • play this tab
  • loop segment
  • change instrument
  • show fretboard
  • metronome
Autoscroll
slow
fast
+/-
esc
set tempo
stop
Difficulty
intermediate
-------------------------------------------------------------------------------
                             SLOW CHEETAH - Red Hot Chili Peppers
-------------------------------------------------------------------------------
Tabbed by: Brendon Chen
E-mail:

Tuning: Standard, CAPO on 6th Fret

      
e|-----------------------------------------------------------0------------------|
B|--------------------------------------------0---------------------------------|
G|-----------0---------------0----------2--------------0------------------------|
D|-----2---------------0--------------------------------------------------------|
A|-----------------------------------0-----0--------3-----3---------------------|
E|--0-----0----0----3------3----3-----------------------------------------------|   Verse

e|------2-----0-----------------------------------------------------------------|
B|------0-----0--------3-----0--------------------------------------------------|
G|---------------------0-----0------2-----0-------------------------------------|
D|----------------------------------0-----0--------2-------2--------------------|
A|-------------------------------0-----0-------3---3---3---3--------------------|
E|---0-----0--------3-----3-----------------------------------------------------|   Repeat 2X

e|---0--------------------------------------------------------------------------|
B|---0--------------------------------------------------------------------------|
G|---2--------------------------------------------------------------------------|
D|---2--------------------------------------------------------------------------|
A|---0--------------------------------------------------------------------------|   Play this Chord
E|------------------------------------------------------------------------------|   leading into the chorus

e|--------------------3---------------------------------------------------------|
B|---------3----------3-----0--0--0--1--1--0------------------------------------|
G|---------0----------0-----2--2--2--2--2--2------------------------------------|
D|---3--3--3----------0-----2--2--2--2--2--2------------------------------------|
A|---2--2--2----2--2--2-----0--0--0--0--0--0---- Repeat ------------------------|
E|--------------3--3--3---------------------------------------------------------|   Chorus

e|------------------------------------------------------------------------------|
B|--------------------0-----------------------0h1---1-0-------------------------|
G|--------------0--------0---------------2--------------2-----------------------|
D|---------0----------------0-------2-------------------------------------------|
A|----2------------2--------------0----0---0------0-----------------------------|
E|--3----3---3------------------------------------------------------------------|   Bridge Part

e|-----0------------------------------------------------------------------------|
B|--3-----3---------------0-----0-----------------------------------------------|
G|---------------------------2-----2--------------------------------------------|
D|-------------------0----------------------------------------------------------|
A|--2-------------2-------0-----0---------------Repeat 2x-----------------------|
E|-------------3----------------------------------------------------------------|   Outro

e|------------------------------------------------------------------------------|
B|-----------------------0-----0------------------------------------------------|
G|--------0-----------------2-----2---------------------------------------------|
D|-----2------------0-----------------------------------------------------------|
A|--3------------2-------0-----0-----------------Repeat 2x----------------------|
E|------------3-----------------------------------------------------------------|   Outro continued



************************************

| /   slide up
| \   slide down
| h   hammer-on
| p   pull-off
| ~   vibrato
| +   harmonic
| x   Mute note
| b   Bend
| pb  Pre-bend
| br  Bend release
| pbr Pre-bend release
| brb Bend release bend

************************************
comments
print report bad tab
1 comment total.
0 reply
brendonachen wrote on April 26 2014, 03:00 pm

Sorry the first chord of the chorus should be

E|--------------
B|---------3----
G|---------0----
D|---2--2--2----
A|---3--3--3----
E|-------------- Chorus

I want to post or [tab]
guest
You may want to rate the tab now too:
select rating
Please do not post tabs as comments. Select "correction" instead!