Oops, an error
Loading. Please wait.
We have an official Snow Hey Oh tab made by UG professional guitarists. Check out the tab »
×
378,012 views 450 this week
31 commentsread comments
1 2 3 4 5
x 79
add to favorites
×
Save as Personal and add changes to this tab that will be seen only by you. Learn more ›
×
You can save this tab as Personal to edit and correct it or add notes. All changes will be seen only by you. Learn more »
launch autoscroll
font size
0
reset
guitar tuner
backing track
0:00
0:00
edit
Autoscroll
slow
fast
+/-
esc
set tempo
stop
Author
Difficulty
Unregistered
intermediate
0:09

G------------------------|
D------------------------|
A----4-6-7-----6-7-9-----|
E--4---------7-----------|


0:37

G---------------------------|
D---------------------------|
A----4-6-7--6-4---6-7-9-----|
E--4------------7-------7-6-|


0:55

G------------------------|
D------------------------|
A----4-6-7-----6-7-9-----|
E--4---------7-----------|


1:14

G---------------------------|
D---------------------------|
A----4-6-7--6-4---6-7-9-----|
E--4------------7-------7-6-|


1:32

G--------------------------------------------------------|
D--------------------------------------------------------|
A--------------------------------------------------------|
E--12--12--12--/14--/16--16--16--14--12--12--12-12-12-12-| 


1:47

G--------------------------------------------------|
D--9-9-9-9-9-9-9-9-8-8-8-8-8-8-8-8-6-6-6-6-6-6-6-6-|
A--------------------------------------------------|
E--------------------------------------------------|

G------------------|
D--6-6-6-6-6-6-6-6-|
A------------------|
E------------------|


2:23

G------------------------|
D------------------------|
A----4-6-7-----6-7-9-----|
E--4---------7-----------|


2:50

G---------------------------|
D---------------------------|
A----4-6-7--6-4---6-7-9-----|
E--4------------7-------7-6-|


3:09

G--------------------------------------------------------|
D--------------------------------------------------------|
A--------------------------------------------------------|
E--12--12--12--/14--/16--16--16--14--12--12--12-12-12-12-| 


3:23

G--------------------------------------------------|
D--9-9-9-9-9-9-9-9-8-8-8-8-8-8-8-8-6-6-6-6-6-6-6-6-|
A--------------------------------------------------|
E--------------------------------------------------|

G------------------|
D--6-6-6-6-6-6-6-6-|
A------------------|
E------------------|


5:23

G--------|
D--6-----|
A--------|
E--------|



************************************

| /  Slide up

************************************
Suggest correction
Creating personal tab
Creating personal tab
You can edit any tab online and save it as your Personal.

You can edit, replace or remove any tab part or add personal notes – all changes will be seen only by you.

Personal tabs can be accessed anytime from any device, even offline.
Learn more »
comments
print report bad tab
31 comments total. Showing first comments.
+1 reply
bagheri4463 10 May 11, 2006 09:04 AM

good tabmanship my main man! fast work aswel. nice.

+1 reply
Red989 10 May 14, 2006 08:31 AM

Great song! Nice work. Now I just need a guitar version. I want to learn this song bad. The guitar rocks.

+1 reply
buildabass124 30 May 15, 2006 01:48 PM

only a couple days after it came out! beautiful! this is a flawless tab for a great song

guest
Wanna post a correction for this tab? Suggest correction