Oops, an error
Loading. Please wait.
We have an official Snow Hey Oh tab made by UG professional guitarists. Check out the tab »
×
8,123 views 6 this week
2 commentsread comments
1 2 3 4 5
x 5
add to favorites
×
Save as Personal and add changes to this tab that will be seen only by you. Learn more ›
×
You can save this tab as Personal to edit and correct it or add notes. All changes will be seen only by you. Learn more »
launch autoscroll
font size
0
reset
guitar tuner
backing track
0:00
0:00
edit
Autoscroll
slow
fast
+/-
esc
set tempo
stop
Author
Difficulty
Band: Red Hot Chili Peppers
Song: Snow (Hey Oh)
Tabbed by: Denniej

  Intro
G|----|----|----|----|-----------|-----------|----------|--------------|
D|----|----|----|----|-----------|-----------|----------|--------------|
A|----|----|----|----|----4-6--7-|----6-7--9-|---4-6--7-|----6-7--9----|
E|----|----|----|----|-4---------|-7---------|-4--------|-7----------7-|

  Verse
G|-----------|-----------|-----------|--------------|-----------|-----------|
D|-----------|-----------|-----------|------------6-|-----------|-----------|
A|----4-6--7-|----6-7--9-|----4-6--7-|----6-7--9----|----4-6--7-|----6-7--9-|
E|-4---------|-7---------|-4---------|-7------------|-4---------|-7---------|

G|-----------|---------------|
D|-----------|---------------|
A|----4-6--7-|---6-7--9------|
E|-4---------|-7--------7-6--|

  Chorus
G|---------------|---------------|--------------|---------------|
D|---------------|---------------|--------------|---------------|
A|----4-6-7--6-4-|----6-7-9------|---4-6-7--6-4-|-------------4-|
E|-4-------------|-7---------7-6-|-4------------|-7--5-4-2--2---|


G|---------------|---------------|---------------|--------------|
D|---------------|---------------|---------------|--------------|
A|----4-6-7--6-4-|----6-7-9------|----4-6-7--6-4-|--------------|
E|-4-------------|-7---------7-6-|-4-------------|-7--5-4--2--2-|


  Verse
G|-----------|-----------|----------|--------------|
D|-----------|-----------|----------|--------------|
A|----4-6--7-|----6-7--9-|---4-6--7-|----6-7--9----|
E|-4---------|-7---------|-4--------|-7----------7-|

G|-----------|-----------|----------|---------------|
D|-----------|-----------|----------|---------------|
A|----4-6--7-|----6-7--9-|----4-6-7-|----6-7-9--11\-|
E|-4---------|-7---------|-4--------|-7-------------|

  Chorus
G|---------------|---------------|---------------|---------------|
D|---------------|---------------|---------------|---------------|
A|----4-6-7--6-4-|----6-7-9------|----4-6-7--6-4-|-------------2-|
E|-4-------------|-7---------7-6-|-4-------------|-7--5-4-2--2---|


G|---------------|------------------|---------------|--------------|
D|---------------|------------------|---------------|--------------|
A|----4-6-7--6-4-|----6-7-9---------|----4-6-7--6-4-|--------------|
E|-4-------------|-7---------7--6-7-|-4-------------|-7--5-4--2--2-|

  Pre-Chorus
G|--------|-------|---------|--------|-------|------------------------|
D|--------|-------|---------|--------|-------|--------------------x-x-|
A|-7---7--|-7---9-|-11---11-|-11---9-|-7---7-|-7--7-7-7-7-7--7-7--x-x-|
E|--------|-------|---------|--------|-------|------------------------|

  Chorus
G|-11--11--11--x-11-11-11--11--x-x-|------------------------------------|
D|-9---9---9---x-9--9--9---9---x-x-|-11--11--11--x-11-11--11--11-11-x-x-|
A|---------------------------------|-9---9---9---x-9--9---9---9--9--x-x-|
E|---------------------------------|------------------------------------|


G|-13--13--13--x-13-13-13--13--x-x-|-13--13--13--x-13-13-13-13-13-13-13-x-|
D|-11--11--11--x-11-11-11--11--x-x-|-11--11--11--x-11-11-11-11-11-11-11-x-|
A|---------------------------------|--------------------------------------|
E|---------------------------------|--------------------------------------|


G|-11--11--11--x-11-11-11-11-11--x-11-|-11--11--11--x-11-11-11--11-11-x-x-|
D|-9---9---9---x-9--9--9--9--9---x-8--|-8---8---8---x-8--8--8---8--8--x-x-|
A|------------------------------------|-----------------------------------|
E|------------------------------------|-----------------------------------|


G|-13--13--13--x-13--13-13-13-13--x-x-|-13--13--13--x-13-13-13-13-13-13-x-x-|
D|-11--11--11--x-11--11-11-11-11--x-x-|-11--11--11--x-11-11-11-11-11-11-x-x-|
A|------------------------------------|-------------------------------------|
E|------------------------------------|-------------------------------------|


G|-11--11--11--x-11-11-11-11-11--x-x-|----------------------------------|
D|-9---9---9---x-9--9--9--9--9---x-x-|-11--11--11--x-11-11-11-11-11-x-x-|
A|-----------------------------------|-9---9---9---x-9--9--9--9--9--x-x-|
E|-----------------------------------|----------------------------------|


G|-13--13-13-13--x-13-13-13-13-13--x-13-|-13-13-13-13-13--x-13-13-13-13-13-13-x-x-|
D|-11--11-11-11--x-11-11-11-11-11--x-11-|-11-11-11-11-11--x-11-11-11-11-11-11-x-x-|
A|--------------------------------------|-----------------------------------------|
E|--------------------------------------|-----------------------------------------|


G|-11--11--11--x-11-11-11-11-11-11-x-11-|-11--11--11--x-11-11--11--11-11-x-x-|
D|-9---9---9---x-9--9--9--9--9--9--x-8--|-8---8---8---x-8--8---8---8--8--x-x-|
A|--------------------------------------|------------------------------------|
E|--------------------------------------|------------------------------------|


G|-13--13--13--x-13-13-13-13--13-x-|-13-13-13-13-13--x-13-13-13-13-13-13--13\-|
D|-11--11--11--x-11-11-11-11--11-x-|-11-11-11-11-11--x-11-11-11-11-11-11--11\-|
A|---------------------------------|------------------------------------------|
E|---------------------------------|------------------------------------------|

  Interlude
G|-----------|-----------|----------|--------------|
D|-----------|-----------|----------|--------------|
A|----4-6--7-|----6-7--9-|---4-6--7-|----6-7--9----|
E|-4---------|-7---------|-4--------|-7----------7-|

  Verse
G|----------|---------|----------|----------------|-----------|----------|
D|----------|---------|----------|-----------6--6-|-----------|----------|
A|----4-6-7-|---6-7-9-|----4-6-7-|----6-7-9-------|----4-6-7--|----6-7-9-|
E|-4--------|-7-------|-4--------|-7--------------|-4---------|-7--------|


G|----------|-------------------|
D|----------|-------------------|
A|----4-6-7-|----6-7-9----------|
E|-4--------|-7---------7-9-7-6-|

  Chorus
G|---------------|---------------|---------------|---------------|
D|---------------|---------------|---------------|---------------|
A|----4-6-7--6-4-|----6-7-9------|----4-6-7--6-4-|-------------2-|
E|-4-------------|-7---------7-6-|-4-------------|-7--5-4-2--2---|

G|---------------|---------------|---------------|--------------|
D|---------------|---------------|---------------|--------------|
A|----4-6-7--6-4-|----6-7-9------|----4-6-7--6-4-|--------------|
E|-4-------------|-7---------7-6-|-4-------------|-7--5-4--2--2-|


G|-------|-------|---------|--------|-------|-----------|
D|-------|-------|---------|--------|-------|-------x-x-|
A|-7---7-|-7---9-|-11---11-|-11---9-|-7---7-|-7---7-x-x-|
E|-------|-------|---------|--------|-------|-----------|

  Chorus
G|-11--11--11--x-11-11-11--11--x-x-|------------------------------------|
D|-9---9---9---x-9--9--9---9---x-x-|-11--11--11--x-11-11--11--11-11-x-x-|
A|---------------------------------|-9---9---9---x-9--9---9---9--9--x-x-|
E|---------------------------------|------------------------------------|


G|-13--13--13--x-13-13-13--13--x-x-|-13--13--13--x-13-13-13-13-13-13-13-x-|
D|-11--11--11--x-11-11-11--11--x-x-|-11--11--11--x-11-11-11-11-11-11-11-x-|
A|---------------------------------|--------------------------------------|
E|---------------------------------|--------------------------------------|


G|-11--11--11--x-11-11-11-11-11--x-11-|-11--11--11--x-11-11-11--11-11-x-x-|
D|-9---9---9---x-9--9--9--9--9---x-8--|-8---8---8---x-8--8--8---8--8--x-x-|
A|------------------------------------|-----------------------------------|
E|------------------------------------|-----------------------------------|


G|-13--13--13--x-13--13-13-13-13--x-x-|-13--13--13--x-13-13-13-13-13-13-x-x-|
D|-11--11--11--x-11--11-11-11-11--x-x-|-11--11--11--x-11-11-11-11-11-11-x-x-|
A|------------------------------------|-------------------------------------|
E|------------------------------------|-------------------------------------|


G|-11--11--11--x-11-11-11-11-11--x-x-|----------------------------------|
D|-9---9---9---x-9--9--9--9--9---x-x-|-11--11--11--x-11-11-11-11-11-x-x-|
A|-----------------------------------|-9---9---9---x-9--9--9--9--9--x-x-|
E|-----------------------------------|----------------------------------|


G|-13--13-13-13--x-13-13-13-13-13--x-13-|-13-13-13-13-13--x-13-13-13-13-13-13-x-x-|
D|-11--11-11-11--x-11-11-11-11-11--x-11-|-11-11-11-11-11--x-11-11-11-11-11-11-x-x-|
A|--------------------------------------|-----------------------------------------|
E|--------------------------------------|-----------------------------------------|


G|-11--11--11--x-11-11-11-11-11-11-x-11-|-11--11--11--x-11-11--11--11-11-x-x-|
D|-9---9---9---x-9--9--9--9--9--9--x-8--|-8---8---8---x-8--8---8---8--8--x-x-|
A|--------------------------------------|------------------------------------|
E|--------------------------------------|------------------------------------|


G|-13--13--13--x-13--13-13-13-13--x-x-|-13--13--13--x-13-13-13-13-13-13-x-x-|
D|-11--11--11--x-11--11-11-11-11--x-x-|-11--11--11--x-11-11-11-11-11-11-x-x-|
A|------------------------------------|-------------------------------------|
E|------------------------------------|-------------------------------------|

Interlude
G|-11--11--11--x-11-11-11--11--x-x-|------------------------------------|
D|-9---9---9---x-9--9--9---9---x-x-|-11--11--11--x-11-11--11--11-11-x-x-|
A|---------------------------------|-9---9---9---x-9--9---9---9--9--x-x-|
E|---------------------------------|------------------------------------|


G|-13--13--13--x-13-13-13--13--x-x-|-13--13--13--x-13-13-13-13-13-13-13-x-|
D|-11--11--11--x-11-11-11--11--x-x-|-11--11--11--x-11-11-11-11-11-11-11-x-|
A|---------------------------------|--------------------------------------|
E|---------------------------------|--------------------------------------|


G|-11--11--11--x-11-11-11-11-11--x-11-|-11--11--11--x-11-11-11--11-11-x-x-|
D|-9---9---9---x-9--9--9--9--9---x-8--|-8---8---8---x-8--8--8---8--8--x-x-|
A|------------------------------------|-----------------------------------|
E|------------------------------------|-----------------------------------|


G|-13--13--13--x-13--13-13-13-13--x-x-|-13--13--13--x-13-13-13-13-13-13-x-x-|
D|-11--11--11--x-11--11-11-11-11--x-x-|-11--11--11--x-11-11-11-11-11-11-x-x-|
A|------------------------------------|-------------------------------------|
E|------------------------------------|-------------------------------------|

Chorus
G|-11--11--11--x-11-11-11--11--x-x-|------------------------------------|
D|-9---9---9---x-9--9--9---9---x-x-|-11--11--11--x-11-11--11--11-11-x-x-|
A|---------------------------------|-9---9---9---x-9--9---9---9--9--x-x-|
E|---------------------------------|------------------------------------|


G|-13--13--13--x-13-13-13--13--x-x-|-13--13--13--x-13-13-13-13-13-13-13-x-|
D|-11--11--11--x-11-11-11--11--x-x-|-11--11--11--x-11-11-11-11-11-11-11-x-|
A|---------------------------------|--------------------------------------|
E|---------------------------------|--------------------------------------|


G|-11--11--11--x-11-11-11-11-11--x-11-|-11--11--11--x-11-11-11--11-11-x-x-|
D|-9---9---9---x-9--9--9--9--9---x-8--|-8---8---8---x-8--8--8---8--8--x-x-|
A|------------------------------------|-----------------------------------|
E|------------------------------------|-----------------------------------|


G|-13--13--13--x-13--13-13-13-13--x-x-|-13--13--13--x-13-13-13-13-13-13-x-x-|
D|-11--11--11--x-11--11-11-11-11--x-x-|-11--11--11--x-11-11-11-11-11-11-x-x-|
A|------------------------------------|-------------------------------------|
E|------------------------------------|-------------------------------------|


G|-11--11--11--x-11-11-11--11--x-x-|------------------------------------|
D|-9---9---9---x-9--9--9---9---x-x-|-11--11--11--x-11-11--11--11-11-x-x-|
A|---------------------------------|-9---9---9---x-9--9---9---9--9--x-x-|
E|---------------------------------|------------------------------------|


G|-13--13--13--x-13-13-13--13--x-x-|-13--13--13--x-13-13-13-13-13-13-13-x-|
D|-11--11--11--x-11-11-11--11--x-x-|-11--11--11--x-11-11-11-11-11-11-11-x-|
A|---------------------------------|--------------------------------------|
E|---------------------------------|--------------------------------------|


G|-11--11--11--x-11-11-11-11-11--x-11-|-11--11--11--x-11-11-11--11-11-x-x-|
D|-9---9---9---x-9--9--9--9--9---x-8--|-8---8---8---x-8--8--8---8--8--x-x-|
A|------------------------------------|-----------------------------------|
E|------------------------------------|-----------------------------------|


G|-13--13--13--x-13--13-13-13-13--x-x-|-13--13--13--x-13-13-13-13-13-13-x-x-|
D|-11--11--11--x-11--11-11-11-11--x-x-|-11--11--11--x-11-11-11-11-11-11-x-x-|
A|------------------------------------|-------------------------------------|
E|------------------------------------|-------------------------------------|

Outro
G|-11--11--11--x-11-11-11--11--x-x-|------------------------------------|
D|-9---9---9---x-9--9--9---9---x-x-|-11--11--11--x-11-11--11--11-11-x-x-|
A|---------------------------------|-9---9---9---x-9--9---9---9--9--x-x-|
E|---------------------------------|------------------------------------|


G|-13--13--13--x-13-13-13--13--x-x-|-13--13--13--x-13-13-13-13-13-13-13-x-|
D|-11--11--11--x-11-11-11--11--x-x-|-11--11--11--x-11-11-11-11-11-11-11-x-|
A|---------------------------------|--------------------------------------|
E|---------------------------------|--------------------------------------|


G|-11--11--11--x-11-11-11-11-11--x-11-|-11--11--11--x-11-11-11--11-11-x-x-|
D|-9---9---9---x-9--9--9--9--9---x-8--|-8---8---8---x-8--8--8---8--8--x-x-|
A|------------------------------------|-----------------------------------|
E|------------------------------------|-----------------------------------|


G|-13--13--13--x-13--13-13-13-13--x-x-|-13--13--13--x-13-13-13-13-13-13-x-x-|
D|-11--11--11--x-11--11-11-11-11--x-x-|-11--11--11--x-11-11-11-11-11-11-x-x-|
A|------------------------------------|-------------------------------------|
E|------------------------------------|-------------------------------------|


G|-11--11--11--x-11-11-11-11-11-11-x-x-|-------------------------------------|
D|-9---9---9---x-9--9--9--9--9--9--x-x-|-11--11--11--x-11-11-11-11-11-11-x-x-|
A|-------------------------------------|-9---9---9---x-9--9--9--9--9--9--x-x-|
E|-------------------------------------|-------------------------------------|


G|-13-13-13-13-13--x-13-13-13-13-13--x-x-|-13-13-13-13-13-13-13-13-13-13-13-13-x-|
D|-11-11-11-11-11--x-11-11-11-11-11--x-x-|-11-11-11-11-11-11-11-11-11-11-11-11-x-|
A|---------------------------------------|---------------------------------------|
E|---------------------------------------|---------------------------------------|


G|-11--11-11--x-11-11-11-11-11-11-x-x-|-11--11-11-11--x-11-11-11-11-11-11-11-11-|-13-|
D|-9---9--9---x-9--9--9--9--9--9--x-x-|-8---8--8--8---x-8--8--8--8--8--8--8--8--|-11-|
A|------------------------------------|-----------------------------------------|----|
E|------------------------------------|-----------------------------------------|----|


Any mistakes please contact me: Denniejj@gmail.com
I got more RHCP tabs so contact me!
Suggest correction
Creating personal tab
Creating personal tab
You can edit any tab online and save it as your Personal.

You can edit, replace or remove any tab part or add personal notes – all changes will be seen only by you.

Personal tabs can be accessed anytime from any device, even offline.
Learn more »
comments
print report bad tab
2 comments total.
0 reply
smno 10 Mar 21, 2007 10:39 AM

this iv wrong:

Chorus
G|---------------|---------------|--------------|---------------|
D|---------------|---------------|--------------|---------------|
A|----4-6-7--6-4-|----6-7-9------|---4-6-7--6-4-|-------------4-|
E|-4-------------|-7---------7-6-|-4------------|-7--5-4-2--2---|


G|---------------|---------------|---------------|--------------|
D|---------------|---------------|---------------|--------------|
A|----4-6-7--6-4-|----6-7-9------|----4-6-7--6-4-|--------------|
E|-4-------------|-7---------7-6-|-4-------------|-7--5-4--2--2-|

0 reply
LeftyBassPlayer 10 Dec 24, 2007 09:59 AM

this tab is shit

guest
You may want to rate the tab now too:
select rating
Wanna post a correction for this tab? Suggest correction