Oops, an error
Loading. Please wait.
We have an official Snow Hey Oh tab made by UG professional guitarists. Check out the tab »
×
276,506 views 555 this week
3 commentsread comments
1 2 3 4 5
x 42
add to favorites
×
Save as Personal and add changes to this tab that will be seen only by you. Learn more ›
×
You can save this tab as Personal to edit and correct it or add notes. All changes will be seen only by you. Learn more »
launch autoscroll
font size
0
reset
how to read this tab
guitar tuner
backing track
0:00
0:00
edit
Autoscroll
slow
fast
+/-
esc
set tempo
stop
Author
#----------------------------------PLEASE NOTE---------------------------------#
#This file is the author's own work and represents their interpretation of the #
#song. You may only use this file for private study, scholarship, or research. #
#------------------------------------------------------------------------------##

                                 SNOW ((HEY OH))
                      As recorded by Red Hot Chili Peppers
                     (From the 2006 Album STADIUM ARCADIUM)

Words and Music by Anthony Kiedis, Flea, John Frusciante and Chad Smith
Arranged by Red Hot Chili Peppers
Transcribed by Derek Line

          G#m                   E                    B                   F#
      x 6 6 4 x x          x 7 6 4 x x          7 6 4 x x x          x 9 8 6 x x

         F#/A#                EVII                 F#IX                 G#mXI
      6 4 4 x x x          x 7 x x 9 x         x 9 x x 11 x         x 11 x x 12 x

         BVII             F#IX(type 2)            C#madd9                C#m
      7 9 x 8 7 7        x 9 11 11 11 x        9 11 x 9 9 11        9 11 x 9 9 9

Gtr I (E A D G B E) - 'Gtr. 1 (clean elec.)'
Gtr II (E A D G B E) - 'Gtr. 1 (elec. w/ dist.)'
Gtr III (E A D G B E) - 'Gtr. 3 (elec. w/dist.)'
Gtr IV (E A D G B E) - 'Gtr. 4 (elec. w/dist.)'
Gtr V (E A D G B E) - 'Gtr. 5 (elec. w/dist.)'


[Intro]

   Moderately Q=104
   G#m               E                   B                 F#
  4/4
   Gtr I
   S S S S T T S S S S S S S T T S S S   S S S S T T S S S  S S S S T T S S S
e|-------------------------------------|---------------------------------------|
B|-------------------------------------|---------------------------------------|
G|-----4---4h6p4---4-----4---4h6p4---4-|------------------------6---6h8p6---6--|
D|---6---6-------6-----6---6-------6---|-----4---4h6p4---4----8---8-------8----|
A|-6-----------------7-----------------|---6---6-------6---/9------------------|
E|-------------------------------------|-7-------------------------------------|


   G#m               E                   E                 F#/A#
   S S S S T T S S S S S S S T T S S S   S S S S T T S S S S S S S T T S S S
e|-------------------------------------|-------------------------------------||
B|-------------------------------------|-------------------------------------||
G|-----4---4h6p4---4-----4---4h6p4---4-|-------------------------------------||
D|---6---6-------6-----6---6-------6---|-----4---4h6p4---4-----4---4h6p4---4-||
A|-6-----------------7-----------------|---6---6-------6-----4---4-------6---||
E|-------------------------------------|-7-----------------6-----------------||


   $$
   G#m               E                   B                 F#
   S S S S T T S S S S S S S T T S S S   S S S S T T S S S  S S S S T T S S S
e|-------------------------------------|--------------------------------------|
B|-------------------------------------|--------------------------------------|
G|-----4---4h6p4---4-----4---4h6p4---4-|------------------------6---6h8p6---6-|
D|---6---6-------6-----6---6-------6---|-----4---4h6p4---4----8---8-------8---|
A|-6-----------------7-----------------|---6---6-------6---/9-----------------|
E|-------------------------------------|-7------------------------------------|


   G#m               E                   B                 F#/A#
   S S S S T T S S S S S S S T T S S S   S S S S T T S S S S S S S T T S S S
e|-------------------------------------|-------------------------------------||
B|-------------------------------------|-------------------------------------||
G|-----4---4h6p4---4-----4---4h6p4---4-|-------------------------------------||
D|---6---6-------6-----6---6-------6---|-----4---4h6p4---4-----4---4h6p4---4-||
A|-6-----------------7-----------------|---6---6-------6-----4---4-------6---||
E|-------------------------------------|-7-----------------6-----------------||


[Verses]

     $
     G#m               E
     S S S S T T S S S S S S S T T S S S
e||--------------------------------------|
B||o-------------------------------------|
G||------4---4h6p4---4-----4---4h6p4---4-|
D||----6---6-------6-----6---6-------6---|
A||o-6-----------------7-----------------|
E||--------------------------------------|


   B                 F#
   S S S S T T S S S  S S S S T T S S S
e|----------------------------------------|
B|----------------------------------------|
G|------------------------6---6h8p6---6---|
D|-----4---4h6p4---4----8---8-------8-----|
A|---6---6-------6---/9-------------------|
E|-7--------------------------------------|


   G#m               E                   B                 F#/A#
   S S S S T T S S S S S S S T T S S S   S S S S T T S S S S S S S T T S S S
e|-------------------------------------|--------------------------------------||
B|-------------------------------------|-------------------------------------o||
G|-----4---4h6p4---4-----4---4h6p4---4-|--------------------------------------||
D|---6---6-------6-----6---6-------6---|-----4---4h6p4---4-----4---4h6p4---4--||
A|-6-----------------7-----------------|---6---6-------6-----4---4-------6---o||
E|-------------------------------------|-7-----------------6------------------||


   G#m               E                   B                 F#
   S S S S T T S S S S S S S T T S S S   S S S S T T S S S  S S S S T T S S S
e|-------------------------------------|--------------------------------------|
B|-------------------------------------|--------------------------------------|
G|-----4---4h6p4---4-----4---4h6p4---4-|------------------------6---6h8p6---6-|
D|---6---6-------6-----6---6-------6---|-----4---4h6p4---4----8---8-------8---|
A|-6-----------------7-----------------|---6---6-------6---/9-----------------|
E|-------------------------------------|-7------------------------------------|


   G#m               E                   B                 F#/A#
   S S S S T T S S S S S S S T T S S S   S S S S T T S S S S S S S T T S S S
e|-------------------------------------|-------------------------------------|
B|-------------------------------------|-------------------------------------|
G|-----4---4h6p4---4-----4---4h6p4---4-|-------------------------------------|
D|---6---6-------6-----6---6-------6---|-----4---4h6p4---4-----4---4h6p4---4-|
A|-6-----------------7-----------------|---6---6-------6-----4---4-------6---|
E|-------------------------------------|-7-----------------6-----------------|


   G#m               E                   B                 F#
   S S S S T T S S S S S S S T T S S S   S S S S T T S S S  S S S S T T S S S
e|-------------------------------------|--------------------------------------|
B|-------------------------------------|--------------------------------------|
G|-----4---4h6p4---4-----4---4h6p4---4-|------------------------6---6h8p6---6-|
D|---6---6-------6-----6---6-------6---|-----4---4h6p4---4----8---8-------8---|
A|-6-----------------7-----------------|---6---6-------6---/9-----------------|
E|-------------------------------------|-7------------------------------------|


                                                                       D.S.
                                                                       D.S.
   G#m               E                   B                 F#/A#
   S S S S T T S S S S S S S T T S S S   S S S S T T S S S S S S S T T S S S
e|-------------------------------------|-------------------------------------||
B|-------------------------------------|-------------------------------------||
G|-----4---4h6p4---4-----4---4h6p4---4-|-------------------------------------||
D|---6---6-------6-----6---6-------6---|-----4---4h6p4---4-----4---4h6p4---4-||
A|-6-----------------7-----------------|---6---6-------6-----4---4-------6---||
E|-------------------------------------|-7-----------------6-----------------||


[1st Pre-chorus]

   E                                                     F#          G#m
   S S S S S S S S S S S S S S S S   S S S S S S S S S S S  S S  S S  S
e|---------------------------------|------------------------------------|
B|---9---9---9---9---9---9---9---9-|---9---9---9---9---9---11---11---12-|
G|---------------------------------|------------------------------------|
D|---------------------------------|------------------------------------|
A|-7---7---7---7---7---7---7---7---|-7---7---7---7---7---7----9----9----|
E|---------------------------------|------------------------------------|


   G#m
    S  S  S  S  S  S  S  S  S  S  S  S  S  S  S  S
e|-------------------------------------------------|
B|----12----12----12----12----12----12----12----12-|
G|-------------------------------------------------|
D|-------------------------------------------------|
A|-11----11----11----11----11----11----11----11----|
E|-------------------------------------------------|


                                   F#        E
    S  S  S  S  S  S  S  S  S  S S  S S  S S S
e|---------------------------------------------|
B|----12----12----12----16----14---12---11---9-|
G|---------------------------------------------|
D|---------------------------------------------|
A|-11----11----11----11----11----x----9----x---|
E|---------------------------------------------|


   S S S S S S S S S S S S S S S S   S S S S S S S S S S S S S S S S
e|---------------------------------|---------------------------------||
B|---9---9---9---9---9---9---9---9-|---9---9---9---9---9---9---9-----||
G|---------------------------------|-----------------------------x-x-||
D|---------------------------------|-----------------------------x-x-||
A|-7---7---7---7---7---7---7---7---|-7---7---7---7---7---7---7---x-x-||
E|---------------------------------|---------------------------------||


[1st Chorus]

     B
     Gtr I
     E S S S S S S S S S S S S S S
e||--7-7-7-7-7-7-7-7-7-7-7-7-7-----|
B||o-7-7-7-7-7-7-7-7-7-7-7-7-7-x-x-|
G||--8-8-8-8-8-8-8-8-8-8-8-8-8-x-x-|
D||--x-x-x-x-x-x-x-x-x-x-x-x-x-x-x-|
A||o-9-9-9-9-9-9-9-9-9-9-9-9-9-----|
E||--7-7-7-7-7-7-7-7-7-7-7-7-7-----|


   F#
    S  S  S  S  S  S  S  S  S  S  S  S  S  S S S
e|-----------------------------------------------|
B|-11-11-11-11-11-11-11-11-11-11-11-11-11-11-----|
G|-11-11-11-11-11-11-11-11-11-11-11-11-11-11-x-x-|
D|-11-11-11-11-11-11-11-11-11-11-11-11-11-11-x-x-|
A|--9--9--9--9--9--9--9--9--9--9--9--9--9--9-x-x-|
E|-----------------------------------------------|


   1.,2.,3.
   C#madd9
    E  S  S  E  S  S  S  S  S  S  S  S  S  S
e|-11-11-11-11-11-11-11-11-11-11-11-11-11-11-|
B|--9--9--9--9--9--9--9--9--9--9--9--9--9--9-|
G|--9--9--9--9--9--9--9--9--9--9--9--9--9--9-|
D|--x--x--x--x--x--x--x--x--x--x--x--x--x--x-|
A|-11-11-11-11-11-11-11-11-11-11-11-11-11-11-|
E|--9--9--9--9--9--9--9--9--9--9--9--9--9--9-|


    S  S  S  S  S  S  S  S  S  S  S  S  S  S S S   4x
e|-11-11-11-11-11-11-11-11-11-11-11-11-11-11-------||
B|--9--9--9--9--9--9--9--9--9--9--9--9--9--9------o||
G|--9--9--9--9--9--9--9--9--9--9--9--9--9--9-x-x---||
D|--x--x--x--x--x--x--x--x--x--x--x--x--x--x-x-x---||
A|-11-11-11-11-11-11-11-11-11-11-11-11-11-11-x-x--o||
E|--9--9--9--9--9--9--9--9--9--9--9--9--9--9-------||

4.
                                                          D.S.S. al Coda
   C#madd9
    S  S  E  E S  S  S  S  E  E  S  S    S  S  E  E  S  S  S  S  E  E S S
e|-11-11-11-11---11-11-11-11-11-11-11-|-11-11-11-11-11-11-11-11-11-11-----||
B|--9--9--9--9-x--9--9--9--9--9--9--9-|--9--9--9--9--9--9--9--9--9--9-x-x-||
G|--9--9--9--9-x--9--9--9--9--9--9--9-|--9--9--9--9--9--9--9--9--9--9-x-x-||
D|--x--x--x--x-x--x--x--x--x--x--x--x-|--x--x--x--x--x--x--x--x--x--x-x-x-||
A|-11-11-11-11---11-11-11-11-11-11-11-|-11-11-11-11-11-11-11-11-11-11-----||
E|--9--9--9--9----9--9--9--9--9--9--9-|--9--9--9--9--9--9--9--9--9--9-----||


[2nd Pre-chorus]

   &
   E                                                           F#           G#m
   S S S S  S  S S S S S S S S S S S     S  S S S  S S S S S S S  S  S  S S  S
e|-----------------------------------|-----------------------------------------|
B|---9---9-----9---9---9---9---9---9-|------9---9----9---9---9---11----11---12-|
G|-----------------------------------|-----------------------------------------|
D|-----------------------------------|-----------------------------------------|
A|-7---7----7----7---7---7---7---7---|---7----7----7---7---7---7-----9----9----|
E|-----------------------------------|-----------------------------------------|
 |
 | Gtr II
 |          >                                      >
 | Q        H.                          +Q         H                 Q
e|---------11------------------------|-(11)-------11-----------------9---------|
B|---------12------------------------|-(12)-------12----------------11---------|
G|---------13------------------------|-(13)-------13----------------11---------|
D|-----------------------------------|-----------------------------------------|
A|-----------------------------------|-----------------------------------------|
E|-----------------------------------|-----------------------------------------|


   G#m
     S   S  S  S  S   S  S  S  S  S  S  S  S  S  S  S
e|----------------------------------------------------|
B|------12----12-----12----12----12----12----12----12-|
G|----------------------------------------------------|
D|----------------------------------------------------|
A|--11-----11----11-----11----11----11----11----11----|
E|----------------------------------------------------|
 |
 |                >
 |  +Q            H.
e|--(9)----------11-----------------------------------|
B|-(11)----------12-----------------------------------|
G|-(11)----------13-----------------------------------|
D|----------------------------------------------------|
A|----------------------------------------------------|
E|----------------------------------------------------|


                                      F#           E
     S   S  S  S  S  S  S  S  S   S S  S   S   S S  S
e|--------------------------------------------11------|
B|------12----12----12----11-----11---12------------9-|
G|----------------------------------------------------|
D|----------------------------------------------------|
A|--11-----11----11----11-----9-----9------9-----9----|
E|----------------------------------------------------|
 |
 |  +H                        E.       S  +S   E    S
e|-(11)-----------------------9-------11-(11)-11---11-|
B|-(12)----------------------11-------12-(12)-12---12-|
G|-(13)----------------------11-------11-(11)-13---13-|
D|----------------------------------------------------|
A|----------------------------------------------------|
E|----------------------------------------------------|


     S  S S S S S S S S S S S S S S S     S  S S S S S S S S S S S S S S S
e|------------------------------------|------------------------------------||
B|------9---9---9---9---9---9---9---9-|------9---9---9---9---9---9---9-----||
G|------------------------------------|--------------------------------x-x-||
D|------------------------------------|--------------------------------x-x-||
A|---7----7---7---7---7---7---7---7---|---7----7---7---7---7---7---7---x-x-||
E|------------------------------------|------------------------------------||
 |
 |   >
 |  +W                                   +W
e|-(11)-------------------------------|-(11)-------------------------------||
B|-(12)-------------------------------|-(12)-------------------------------||
G|-(13)-------------------------------|-(13)-------------------------------||
D|------------------------------------|------------------------------------||
A|------------------------------------|------------------------------------||
E|------------------------------------|------------------------------------||


[2nd Chorus]

     B
     Gtr I
     E S S S S S S S S S S S S S S
e||--7-7-7-7-7-7-7-7-7-7-7-7-7-----|
B||o-7-7-7-7-7-7-7-7-7-7-7-7-7-x-x-|
G||--8-8-8-8-8-8-8-8-8-8-8-8-8-x-x-|
D||--x-x-x-x-x-x-x-x-x-x-x-x-x-x-x-|
A||o-9-9-9-9-9-9-9-9-9-9-9-9-9-----|
E||--7-7-7-7-7-7-7-7-7-7-7-7-7-----|


   F#
    S  S  S  S  S  S  S  S  S  S  S  S  S  S S S
e|-----------------------------------------------|
B|-11-11-11-11-11-11-11-11-11-11-11-11-11-11-----|
G|-11-11-11-11-11-11-11-11-11-11-11-11-11-11-x-x-|
D|-11-11-11-11-11-11-11-11-11-11-11-11-11-11-x-x-|
A|--9--9--9--9--9--9--9--9--9--9--9--9--9--9-x-x-|
E|-----------------------------------------------|


   1.,2.,3.
   C#madd9
    E  S  S  E  S  S  S  S  S  S  S  S  S  S
e|-11-11-11-11-11-11-11-11-11-11-11-11-11-11-|
B|--9--9--9--9--9--9--9--9--9--9--9--9--9--9-|
G|--9--9--9--9--9--9--9--9--9--9--9--9--9--9-|
D|--x--x--x--x--x--x--x--x--x--x--x--x--x--x-|
A|-11-11-11-11-11-11-11-11-11-11-11-11-11-11-|
E|--9--9--9--9--9--9--9--9--9--9--9--9--9--9-|


    S  S  S  S  S  S  S  S  S  S  S  S  S  S S S   4x
e|-11-11-11-11-11-11-11-11-11-11-11-11-11-11-------||
B|--9--9--9--9--9--9--9--9--9--9--9--9--9--9------o||
G|--9--9--9--9--9--9--9--9--9--9--9--9--9--9-x-x---||
D|--x--x--x--x--x--x--x--x--x--x--x--x--x--x-x-x---||
A|-11-11-11-11-11-11-11-11-11-11-11-11-11-11-x-x--o||
E|--9--9--9--9--9--9--9--9--9--9--9--9--9--9-------||


   4.
   C#madd9
    S  S  E  E  S  S  S  S  E  E  S  S     S   S  E  E  S  S  S  S  E  E S S
e|-11-11-11-11----11-11-11-11-11-11-11-|--11--11-11-11-11-11-11-11-11-11-----||
B|--9--9--9--9--x--9--9--9--9--9--9--9-|---9---9--9--9--9--9--9--9--9--9-x-x-||
G|--9--9--9--9--x--9--9--9--9--9--9--9-|---9---9--9--9--9--9--9--9--9--9-x-x-||
D|--x--x--x--x--x--x--x--x--x--x--x--x-|---x---x--x--x--x--x--x--x--x--x-x-x-||
A|-11-11-11-11----11-11-11-11-11-11-11-|--11--11-11-11-11-11-11-11-11-11-----||
E|--9--9--9--9-----9--9--9--9--9--9--9-|---9---9--9--9--9--9--9--9--9--9-----||
 |
 | Gtr II
 |           <
 |  Q        H.                           +Q         Q        H
e|----------26-------------------------|-(26)--------------------------------||
B|-------------------------------------|-------------------------------------||
G|-------------------------------------|-------------------------------------||
D|-------------------------------------|-------------------------------------||
A|-------------------------------------|-------------------------------------||
E|-------------------------------------|-------------------------------------||


     B
     Gtrs I, II
     S S S S S S S S S S S S S S S S
e||--7-7-7-7-7-7-7-7-7-7-7-7-7-7-----|
B||o-7-7-7-7-7-7-7-7-7-7-7-7-7-7-x-x-|
G||--8-8-8-8-8-8-8-8-8-8-8-8-8-8-x-x-|
D||--9-9-9-9-9-9-9-9-9-9-9-9-9-9-x-x-|
A||o-x-x-x-x-x-x-x-x-x-x-x-x-x-x-----|
E||--7-7-7-7-7-7-7-7-7-7-7-7-7-7-----|


   F#
    S  S  S  S  S  S  S  S  S  S  S  S  S  S S S
e|------------------------------------------------|
B|-11-11-11-11-11-11-11-11-11-11-11-11-11-11-x-x--|
G|-11-11-11-11-11-11-11-11-11-11-11-11-11-11-x-x--|
D|-11-11-11-11-11-11-11-11-11-11-11-11-11-11-x-x--|
A|--9--9--9--9--9--9--9--9--9--9--9--9--9--9------|
E|------------------------------------------------|


   C#madd9
    S  S  S  S  S  S  S  S  S  S  S  S  S  S  S  S
e|-11-11-11-11-11-11-11-11-11-11-11-11-11-11-11-11-|
B|--9--9--9--9--9--9--9--9--9--9--9--9--9--9--9--9-|
G|--9--9--9--9--9--9--9--9--9--9--9--9--9--9--9--9-|
D|-11-11-11-11-11-11-11-11-11-11-11-11-11-11-11-11-|
A|--x--x--x--x--x--x--x--x--x--x--x--x--x--x--x--x-|
E|--9--9--9--9--9--9--9--9--9--9--9--9--9--9--9--9-|


    S  S  S  S  S  S  S  S  S  S  S  S  S  S S S
e|-11-11-11-11-11-11-11-11-11-11-11-11-11-11------||
B|--9--9--9--9--9--9--9--9--9--9--9--9--9--9-x-x-o||
G|--9--9--9--9--9--9--9--9--9--9--9--9--9--9-x-x--||
D|-11-11-11-11-11-11-11-11-11-11-11-11-11-11-x-x--||
A|--x--x--x--x--x--x--x--x--x--x--x--x--x--x-----o||
E|--9--9--9--9--9--9--9--9--9--9--9--9--9--9------||


     B
     Gtr III
      E  E    E.      S  +E     E    E   E
e||--11--------------11-(11)-------------9---|
B||o----12---------------------12------------|
G||----------11---------------------11-------|
D||------------------------------------------|
A||o-----------------------------------------|
E||------------------------------------------|
|
 |   Gtrs I, II
 |    E  S S  S  S S  S   S  S  S S  S S S S
e||---7--7-7--7--7-7--7---7--7--7-7--7-7-----|
B||o--7--7-7--7--7-7--7---7--7--7-7--7-7-x-x-|
G||---8--8-8--8--8-8--8---8--8--8-8--8-8-x-x-|
D||---x--x-x--x--x-x--x---x--x--x-x--x-x-x-x-|
A||o--9--9-9--9--9-9--9---9--9--9-9--9-9-----|
E||---7--7-7--7--7-7--7---7--7--7-7--7-7-----|


   F#
   +E      E     E     E    +E      E     E     E
e|-(9)-----------------9----(9)----------------11---|
B|--------11-----------------------11---------------|
G|--------------11-----------------------11---------|
D|--------------------------------------------------|
A|--------------------------------------------------|
E|--------------------------------------------------|
|
 |  S   S  S  S  S  S  S  S  S   S  S  S  S  S  S S
e|--------------------------------------------------|
B|-11--11-11-11-11-11-11-11-11--11-11-11-11-11------|
G|-11--11-11-11-11-11-11-11-11--11-11-11-11-11--x-x-|
D|-11--11-11-11-11-11-11-11-11--11-11-11-11-11--x-x-|
A|--9---9--9--9--9--9--9--9--9---9--9--9--9--9--x-x-|
E|--------------------------------------------------|


   C#madd9
    +E   E     H.
e|-(11)-----------------------------------------|
B|------12--------------------------------------|
G|------------13--------------------------------|
D|----------------------------------------------|
A|----------------------------------------------|
E|----------------------------------------------|
|
 |   E   S  S  E   S  S  S  S  S  S  S  S  S  S
e|--11--11-11-11--11-11-11-11-11-11-11-11-11-11-|
B|---9---9--9--9---9--9--9--9--9--9--9--9--9--9-|
G|---9---9--9--9---9--9--9--9--9--9--9--9--9--9-|
D|---x---x--x--x---x--x--x--x--x--x--x--x--x--x-|
A|--11--11-11-11--11-11-11-11-11-11-11-11-11-11-|
E|---9---9--9--9---9--9--9--9--9--9--9--9--9--9-|


    +W                                               6x
e|---------------------------------------------------||
B|--------------------------------------------------o||
G|-(13)----------------------------------------------||
D|---------------------------------------------------||
A|--------------------------------------------------o||
E|---------------------------------------------------||
|
 |   S   S  S  S  S  S  S  S  S  S  S  S  S  S S S   6x
e|--11--11-11-11-11-11-11-11-11-11-11-11-11-11-------||
B|---9---9--9--9--9--9--9--9--9--9--9--9--9--9------o||
G|---9---9--9--9--9--9--9--9--9--9--9--9--9--9-x-x---||
D|---x---x--x--x--x--x--x--x--x--x--x--x--x--x-x-x---||
A|--11--11-11-11-11-11-11-11-11-11-11-11-11-11-x-x--o||
E|---9---9--9--9--9--9--9--9--9--9--9--9--9--9-------||


[Outro]

  B
  Gtrs I, II
   E     S S  S  S S  S   S  S  S S  S S S S
   |     | |  |  | |  |   |  |  | |  | | | |
   /     / /  /  / /  /   /  /  / /  / / x x

   Gtr V
    ~~~~~                                 PM
    H..                                   E
e|--------------------------------------------|
B|--------------------------------------------|
G|-15b16--------------------------------------|
D|----------------------------------------x---|
A|----------------------------------------x---|
E|--------------------------------------------|
 |
 | Gtr IV
 |  ~~~~~                                 PM
 |  H..                                   E
e|--------------------------------------------|
B|--7-----------------------------------------|
G|--9b11--------------------------------------|
D|----------------------------------------x---|
A|----------------------------------------x---|
E|--------------------------------------------|
 |
 | Gtr III
 |  E     E    E.      S  +E     E    E   E
e|-11-----------------11-(11)-------------9---|
B|-------12---------------------12------------|
G|------------11---------------------11-------|
D|--------------------------------------------|
A|--------------------------------------------|
E|--------------------------------------------|


  F#
   S    S  S S  E S S  S  S  S S  S S  S S
   |    |  | |  | | |  |  |  | |  | |  | |
   /    /  / /  / / /  /  /  / /  / /  x x

    ~~~~~                               PM
    H..                                 E
e|-------------------------------------------|
B|-------------------------------------------|
G|-16b18-------------------------------------|
D|--------------------------------------x----|
A|--------------------------------------x----|
E|-------------------------------------------|
 |
 |  ~~~~~                               PM
 |  H..                                 E
e|-------------------------------------------|
B|-11----------------------------------------|
G|-13b15-------------------------------------|
D|--------------------------------------x----|
A|--------------------------------------x----|
E|-------------------------------------------|
 |
 | +E       E    E E   +E     E    E    E
e|-(9)-------------9---(9)-------------11----|
B|---------11----------------11--------------|
G|--------------11----------------11---------|
D|-------------------------------------------|
A|-------------------------------------------|
E|-------------------------------------------|


  C#madd9
    S     S  S S  E  S S S S S S S S S S     S   S S S S S S S S S S S S S S S
    |     |  | |  |  | | | | | | | | | |     |   | | | | | | | | | | | | | | |
    /     /  / /  /  / / / / / / / / / /     /   / / / / / / / / / / / / / x x

     ~~~~~~~~~~~~~~~~~~~~~~~~~~~~~~~~~~~~~~~~~~~~~
     W                                       +H.                        Q
e|----------------------------------------|-------------------------------------|
B|----------------------------------------|-------------------------------------|
G|--18b20=================================|=(18)r-------------------------------|
D|----------------------------------------|-------------------------------------|
A|----------------------------------------|-------------------------------------|
E|----------------------------------------|-------------------------------------|
 |
 |   ~~~~~~~~~~~~~~~~~~~~~~~~~~~~~~~~~~~~~~~~~~~~~
 |   W                                       +H.                        E   E
e|--16------------------------------------|-(16)--------------------------------|
B|--19b21=================================|=(19)r-------------------------------|
G|----------------------------------------|-------------------------------------|
D|----------------------------------------|-----------------------------x---x---|
A|----------------------------------------|-----------------------------x---x---|
E|----------------------------------------|-------------------------------------|
 |
 |  +E        E    H.                        +W
e|-(11)-----------------------------------|-------------------------------------|
B|-----------12---------------------------|-------------------------------------|
G|----------------13----------------------|-(13)--------------------------------|
D|----------------------------------------|-------------------------------------|
A|----------------------------------------|-------------------------------------|
E|----------------------------------------|-------------------------------------|


  B
   S    S  S S  S  S S  S   S  S  S S  S S S S
   |    |  | |  |  | |  |   |  |  | |  | | | |
   /    /  / /  /  / /  /   /  /  / /  / / x x

    ~~~~~                                   PM
    H..                                     E
e|----------------------------------------------|
B|----------------------------------------------|
G|-15b16----------------------------------------|
D|------------------------------------------x---|
A|------------------------------------------x---|
E|----------------------------------------------|
 |
 |  ~~~~~                                   PM
 |  H..                                     E
e|----------------------------------------------|
B|--7-------------------------------------------|
G|--9b11----------------------------------------|
D|------------------------------------------x---|
A|------------------------------------------x---|
E|----------------------------------------------|
 |
 |  E       E    E.      S  +E     E    E   E
e|-11-------------------11-(11)-------------9---|
B|---------12---------------------12------------|
G|--------------11---------------------11-------|
D|----------------------------------------------|
A|----------------------------------------------|
E|----------------------------------------------|


  F#
   S    S  S S  E S S  S  S  E  E E
   |    |  | |  | | |  |  |  |  | |
   /    /  / /  / x /  /  /  /  / /

    ~~~~~
    H..                            E
e|------------------------------------||
B|------------------------------------||
G|-16b18------------------------------||
D|------------------------------------||
A|------------------------------------||
E|------------------------------------||
 |
 |  ~~~~~                          TP
 |  H..                            E
e|------------------------------------||
B|-11---------------------------------||
G|-13b15------------------------------||
D|---------------------------------x\-||
A|------------------------------------||
E|------------------------------------||
 |
 | +E       E    E E   +E     E  Q
e|-(9)-------------9---(9)------------||
B|---------11----------------11-------||
G|--------------11--------------11----||
D|------------------------------------||
A|------------------------------------||
E|------------------------------------||


  Freely Q=65
  C#m
   W                       +W
   |                        |
   /                        /

    ~~~~~~
    H..          +E         +Q    +Q          +Q     Q
e|-----------------------:------------------------------*|
B|-----------------------:------------------------------*|
G|-16b18========(16)b19==:=(16)r=(16)b19-----(16)-------*|
D|-----------------------:------------------------------*|
A|-----------------------:------------------------------*|
E|-----------------------:------------------------------*|
 |
 |  W                       +Q    +Q          +Q    +q
e|-----------------------:------------------------------*|
B|-----------------------:------------------------------*|
G|-11b13=================:=(11)r=(11)b13.5===(11)r=(11)-*|
D|-----------------------:------------------------------*|
A|-----------------------:------------------------------*|
E|-----------------------:------------------------------*|
 |
 |  W                        W
e|-----------------------:------------------------------*|
B|-----------------------:------------------------------*|
G|-13--------------------:------------------------------*|
D|-----------------------:------------------------------*|
A|-----------------------:------------------------------*|
E|-----------------------:------------------------------*|


Duration Legend
---------------
W - whole; H - half; Q - quarter; E - 8th; S - 16th; T - 32nd; X - 64th; a - acciaccatura
+ - note tied to previous; . - note dotted; .. - note double dotted
Uncapitalized letters represent notes that are staccato (1/2 duration)
Irregular groupings are notated above the duration line
Duration letters will always appear directly above the note/fret number it represents the
duration for.  Duration letters with no fret number below them represent rests.  Multi-
bar rests are notated in the form Wxn, where n is the number of bars to rest for.  Low
melody durations appear below the staff

Tablature Legend
----------------
 h   - hammer-on
 p   - pull-off
 b   - bend
 pb  - pre-bend
 r   - bend release (if no number after the r, then release immediately)
 /\  - slide into or out of (from/to "nowhere")
 s   - legato slide
 S   - shift slide
  - natural harmonic
[n]  - artificial harmonic
n(n) - tapped harmonic
 ~   - vibrato
 tr  - trill
 T   - tap
 TP  - trem. picking
 PM  - palm muting
\n/  - tremolo bar dip; n = amount to dip
 \n  - tremolo bar down
 n/  - tremolo bar up
/n\  - tremolo bar inverted dip
 =   - hold bend; also acts as connecting device for hammers/pulls
 <>  - volume swell (louder/softer)
 x   - on rhythm slash represents muted slash
 o   - on rhythm slash represents single note slash

Misc Legend
-----------
 |  - bar
||  - double bar
||o - repeat start
o|| - repeat end
*|  - double bar (ending)
 :  - bar (freetime)
 $  - Segno
 &  - Coda
Tempo markers -  = BPM(8/16=s8/s16), where s8 = swing 8ths, s16 = swing 16ths


***************************************************************************************
* Generated using Power Tab Editor by Brad Larsen - http://powertab.guitarnetwork.org *
***************************************************************************************
Suggest correction
Creating personal tab
Creating personal tab
You can edit any tab online and save it as your Personal.

You can edit, replace or remove any tab part or add personal notes – all changes will be seen only by you.

Personal tabs can be accessed anytime from any device, even offline.
Learn more »
comments
print report bad tab
3 comments total.
0 reply
Dire straits 77 Feb 09, 2007 07:25 PM

awesome, i'm the first one to rate this song.

Anyway, it's great and very detailed

-2 reply
GDU2 10 Feb 27, 2007 04:59 AM

Great Tab but this part John plays different
|---------------------------------------------|
|----12----12----12----16----14---12---11---9-|
|---------------------------------------------|
|---------------------------------------------|
|-11----11----11----11----11----x----9----x---|
|---------------------------------------------|

He plays it like this
|---------------------------------------------|
|----12----12----12----12----11---11---11---9-|
|---------------------------------------------|
|---------------------------------------------|
|-11----11----11----11----9----9----9-----x---|
|---------------------------------------------|

+1 reply
handlerb 311 Jun 24, 2007 11:23 AM

big improvement over the first "5-star" tab. This is definitely closer to how john actually plays it (funkier chords, etc). Great job

guest
You may want to rate the tab now too:
select rating
Wanna post a correction for this tab? Suggest correction