Oops, an error
Loading. Please wait.

So Much I Bass Tab

version 2
version 2

Whole song

Interactive

38,285 views 39 this week
20 commentsread comments
1 2 3 4 5
x 49
add to favorites
launch autoscroll
font size
0
reset
guitar tuner
Autoscroll
slow
fast
+/-
esc
set tempo
stop
Help us to improve Ultimate-Guitar.com Take our survey!
×
Author
-----------------------------------------------------------------------------
	           So Much I - The Red Hot Chili Peppers
-----------------------------------------------------------------------------

Tabbed By : Kevin A. (Felas_Kevin)
e-mail: vekiskev@yahoo.com

Tuning: Standard

Dunno what made me tab this too, have fun :]


First Verse (w/slight overdrive)

G|----2------------2------------|
D|---4---2--------4---2---------|
A|------4--2-4-0-----4--2-4-----|
E|-2-------------2----------0---| x8

G|-------------------------------|
D|-------------------------------|
A|----------------3-3-3-3-3-3-3--|
E|-2-2-2-2-2-2-2-2---------------|

G|----2------------2------------|
D|---4---2--------4---2---------|
A|------4--2-4-0-----4--2-4-----|
E|-2-------------2----------0---| x5

G|-------------------------------|
D|-------------------------------|
A|----------------3-3-3-3-3-3-3--|
E|-2-2-2-2-2-2-2-2---------------|

First Prechorus (0:47)

G|------14~-14--14------14~-14--14------14-----14--14-------|
D|----------------------------------------------------------|
A|----------------------------------------------------------|
E|-14-14------14---12-12------12---10-10--10-10--10---------|

G|----------14----------14~-14--14-----14~-14-----------|
D|------14~---14----------------------------------------|
A|-12-12--------12--------------------------------------|
E|-----------------14-14------14--12-12------12-7(x16)--| All x2

First Chorus (1:13)

G|---x679-----------------------------|
D|-77------x679--------7-9/11-11-9-7--|
A|-------77------x6-7-9---------------|
E|-------------77---------------------|

G|---x679-------------------6-9-6-------|
D|-77------x679--------7-7-9------9-7---|
A|-------77------x6-7-9-----------------|
E|-------------77-----------------------|

G|---x679----------------------9-11-9-------|
D|-77------x679--------7-7-9-11------11-9---|
A|-------77------x6-7-9---------------------|
E|-------------77---------------------------|

G|---x679------------------------------|
D|-77------x679--9-9----9-9-9----------|
A|-------77----------------------------|
E|--------------7-7-7--7-7-7-7---------|

Second Verse (1:39)

G|----2------------2------------|
D|---4---2--------4---2---------|
A|------4--2-4-0-----4--2-4-----|
E|-2-------------2----------0---| x5

G|-------------------------------|
D|-------------------------------|
A|----------------3-3-3-3-3-3-3--|
E|-2-2-2-2-2-2-2-2---------------|

Second Prechorus (1:58)

G|------14~-14--14------14~-14--14------14-----14--14-------|
D|----------------------------------------------------------|
A|----------------------------------------------------------|
E|-14-14------14---12-12------12---10-10--10-10--10---------|

G|----------14----------14~-14--14-----14~-14-----------|
D|------14~---14----------------------------------------|
A|-12-12--------12--------------------------------------|
E|-----------------14-14------14--12-12------12-7(x16)--| All x2

Second Chorus (2:24)

G|---x679-----------------------------|
D|-77------x679--------7-9-11-9-7-----|
A|-------77------x6-7-9---------------|
E|-------------77---------------------|

G|---x679--------------------9-11-9------|
D|-77------x679--------7-99h11------11---|
A|-------77------x6-7-9------------------|
E|-------------77------------------------|

G|---x679-----------------------------|
D|-77------x679--------7-9-11-9-7-----|
A|-------77------x6-7-9---------------|
E|-------------77---------------------|

G|---x679--------------------14(x8)------|
D|-77------x679--------7-9-11------------|
A|-------77------x6-7-9------------------|
E|-------------77------------------------|

G|---x679----------------------9h11-9--------|
D|-77------x679--------7-7-9/11------11-9-7--|
A|-------77------x6-7-9----------------------|
E|-------------77----------------------------|

G|---x679----------------------------|
D|-77------x679--------7-9-11-9-7----|
A|-------77------6-7-9---------------|
E|-------------7---------------------|

Guitar Solo/Outro (3:03)

G|---x679------------------------------------|
D|-77------x679-----------9-11-9----9-11-9---|
A|-------77------x6-7-9h12------9h12---------|
E|-------------77----------------------------|

G|---x679--------------------/14-11-9--------|
D|-77------x679--------7-9-11--------11------|
A|-------77------6-7-9-----------------9-----|
E|-------------7-----------------------------|

G|---x679-------------------9-11-9---------|
D|-77------x679--------7-/11------11-9-----|
A|-------77------6-7-9---------------------|
E|-------------7---------------------------|

G|-----9-------------------------------------------|
D|-7------------9----------------------------------|
A|-------7--7h9---9--------------------------------|
E|------------------7~-----------------------------|
                      *After this note there is a lot of different
                      Slides and noise going on and stuff, figure 
                      it out if you want to be exact or something...
(3:40)
G|--------------|
D|--------------|
A|--------------|
E|-7/19\7 7~~~--|

There you go, please rate :]

=============================================================================

| /  slide up
| \  slide down
| h  hammer-on
| p  pull-off
| ~  let ring
| +  harmonic
| x  Mute note
=============================================================================

Suggest correction
comments
print report bad tab
20 comments total. Showing first comments.
+3 reply
bassman2013 10 Jul 10, 2006 03:50 PM

1st comment. sick tab. good job dude

+2 reply
harl91 373 Jul 26, 2006 06:18 PM

good job, its great

+2 reply
soupisgoodfood 30 Aug 16, 2006 09:04 PM

well done. GREAT JOB BRO!

guest
You may want to rate the tab now too:
select rating
Wanna post a correction for this tab? Suggest correction