Oops, an error
Loading. Please wait.
We have Chord Pro version of Soul To Squeeze.
It's the closest thing you can get to the original song and it has interactive parts. Check out the tab »
×
717,934 views 927 this week
26 commentsread comments
1 2 3 4 5
x 179
add to favorites
×
Save as Personal and add changes to this tab that will be seen only by you. Learn more ›
×
You can save this tab as Personal to edit and correct it or add notes. All changes will be seen only by you. Learn more »
launch autoscroll
font size
0
reset
how to read this tab
guitar tuner
backing track
0:00
0:00
edit
Autoscroll
slow
fast
+/-
esc
set tempo
stop
The other tabs are good but none of them tabbed the verse(s) rythm of this song so
thats what I've done here. It took me ages to do so enjoy it!


[Intro]

Guitar I
e|----------------------------------|
B|----------------------------------|
G|------2-----4b54p2-------------2--|
D|---2----------------------2h4-----|
A|0--------0----------0--0----------|
E|----------------------------------|
           
e|-----------------------------------------|
B|------------------------------5----------|
G|-------2-----------2-----4/6-----6\4--2--|
D|----2--------2---------------------------|
A|-0--------0-----0-----0------------------|
E|-----------------------------------------|                                    

e|-----------------------------------|----------------------------------|
B|-----------------------------------|----------------------------------|
G|--------2-----4b5p2-------------2--|--------2-------------------------|
D|-----2---------------------2h4-----|-----2--------2-----2------0------|
A|--0--------0---------0--0----------|--0--------0-----0----------------|
E|-----------------------------------|-----------------------3b4---3b4--|
                                        
e|-----------------------------------|
B|-----------------------------------|
G|--------2-----4b5p2-------------2--|
D|-----2---------------------2h4-----|
A|--0--------0---------0--0----------|
E|-----------------------------------|
                                       
e|-------------------------------5--------|
B|----------------------------------------|
G|--------2-----------------4/6-----6p4p2-|
D|-----2--------2-----2-------------------|
A|--0--------0-----0-----0----------------|
E|----------------------------------------|
                                                                            
e|----------------------------------|
B|----------------------------------|
G|--------2-----4b5p2-------------2-|
D|-----2---------------------2h4----|
A|--0--------0---------0--0---------|
E|----------------------------------|
   
e|----------------------------------|
B|-----------2—--2---2---2----------|
G|--------2--2—--2---2---2----------|
D|-----2-----2—--2---2---2----------|
A|--0--------0---0---0---0----------|
E|--------------------------3-------|
 |                                  |
 |Guitar II                         |
e|----------------------------------|
B|---8/10------8/10-----------------|
G|----------------------------------|
D|----------------------------------|
A|----------------------------------|
E|----------------------------------|
                                        
       F             C            Dm    Bb/Dm  
e|-------1----------------------|--------------------|
B|-------1-----------5-—5-------|-6--6-6-6-6---------|
G|-------2-----------5--5-------|-7--7-7-7-7---------|
D|-------3-----------5--5-------|-7--7-7-7-7---------|
A|-------3--------3--3--3---5/7-|-5--5-5-5-X---------|
E|-0--1--1---3/5----------------|----------6---------|
 | Guitar II                                         |
e|------ -----------------------|--------------------|
B|--- 13/15-----15\13-----------|--------------13----|
G|----------- -------------14---|-----------------14-|
D|---------------- -------------|--------------------|
A|---------- -------------------|--------------------|
E|-------------- ---------------|--------------------|

     Dm             F                        C       Gm 
e|-----------------------------------------|----------3---3-3---|
B|--6-6-6-6-6-6-6-X-8--8--8--8--8--8--8--X-|-3-3-3-3--3---3-3---|
G|--7-7-7-7-7-7-7-X-10-10-10-10-10-10-10-X-|-5-5-5-5--3---3-3---|
D|--7-7-7-7-7-7-7-X-10-10-10-10-10-10-10-X-|-5-5-5-5—-5---5-5---|
A|--5-5-5-5-5-5-5-X-10-10-10-10-10-10-10-X-|-5-5-5-5--5---5-5---|
E|-----------------------------------------|--------------------|
 |                                                              |  
 |Guitar II                                                     |
e|-----------------------------------------|--------------------|
B|-----------------------------------------|----------------13--|
G|--10-------------------------------------|---12/14------------|
D|-----------------------------------------|--------------------|
A|-----------------------------------------|--------------------|
E|-----------------------------------------|--------------------|

       F             C            Dm    Dm  
e|-------1----------------------|----------------------|
B|-------1-----------5-—5-------|-6---------------6----|
G|-------2-----------5--5-------|-7-(/10)10h12p10-7----|
D|-------3-----------5--5-------|-7-(/10)10-------7----|
A|-------3--------3--3--3---5/7-|-5---------------5----|
E|-0--1--1---3/5----------------|----------------------|
 |Guitar II                                            |
e|-----------------------------------------------------|
B-----------------------------13/15--------------------|
G|-----------------------------------------------------|
D|-----------------------------------------------------|
A|-----------------------------------------------------|
E|-----------------------------------------------------|

    Dm             F                        C       Gm
e|-----------------------------------------|----------3---3-3---|
B|--6-6-6-6-6-6-6-X-8--8--8--8--8--8--8--X-|-3-3-3-3--3---3-3---|
G|--7-7-7-7-7-7-7-X-10-10-10-10-10-10-10-X-|-5-5-5-5--3---3-3---|
D|--7-7-7-7-7-7-7-X-10-10-10-10-10-10-10-X-|-5-5-5-5—-5---5-5---|
A|--5-5-5-5-5-5-5-X-10-10-10-10-10-10-10-X-|-5-5-5-5--5---5-5---|
E|-----------------------------------------|--------------------|
 | Guitar II                                                    |
e|-----------------------------------------|--------------------|
B|--------13/15----------------------------|---13---------------|
G|-----------------------------------------|-----------------14-|
D|-----------------------------------------|--------------------|
A|-----------------------------------------|--------------------|
E|-----------------------------------------|--------------------|


[First Verse]

No guitar part first time round!!!

       F             C            Dm    Bb/Dm  
e|-------1----------------------|--------------------|
B|-------1-----------5-—5-------|-6--6-6-6-6---------|
G|-------2-----------5--5-------|-7--7-7-7-7---------|
D|-------3-----------5--5-------|-7--7-7-7-7---------|
A|-------3--------3--3--3---5/7-|-5--5-5-5-X---------|
E|-0--1--1---3/5----------------|----------6---------|
 |                                                   |
 | Guitar II                                         |          
e|-----------------------8/10\8----------------------|
B|---------------------------------------------------|
G|---------------------------------------------------|
D|---------------------------------------------------|
A|---------------------------------------------------|
E|---------------------------------------------------|

    Dm             F                        C       Gm
e|-----------------------------------------|----------3---3-3---|
B|--6-6-6-6-6-6-6-X-8--8--8--8--8--8--8--X-|-3-3-3-3--3---3-3---|
G|--7-7-7-7-7-7-7-X-10-10-10-10-10-10-10-X-|-5-5-5-5--3---3-3---|
D|--7-7-7-7-7-7-7-X-10-10-10-10-10-10-10-X-|-5-5-5-5—-5---5-5---|
A|--5-5-5-5-5-5-5-X-10-10-10-10-10-10-10-X-|-5-5-5-5--5---5-5---|
E|-----------------------------------------|--------------------|
 | Guitar II                                                    |
e|--------------------------------------------10----------------|
B|--------------------------------------------------13—10/11/10-|
G|--------------------------------------------------------------|
D|--------------------------------------------------------------|
A|--------------------------------------------------------------|
E|--------------------------------------------------------------|

       F             C            Dm    Dm  
e|-------1----------------------|----------------------|
B|-------1-----------5-—5-------|-6---------------6----|
G|-------2-----------5--5-------|-7-(/10)10h12p10-7----|
D|-------3-----------5--5-------|-7-(/10)10-------7----|
A|-------3--------3--3--3---5/7-|-5---------------5----|
E|-0--1--1---3/5----------------|----------------------|
 |                                                     |
 | Guitar II                                           |
e|-----------------------------------------------------|
B|---------------------------------------------10/6----|
G|-----------------------------------------------------|
D|-----------------------------------------------------|
A|-----------------------------------------------------|
E|-----------------------------------------------------|


[Chorus]

Use these chords but only strum once as written above lyrics below|  
 
     F    C   Dm9  Bb Am  Bb
e|-------------0----------------|
B|---10---8----6---6---5--6-----|
G|---10---9----7---7---5--7-----|
D|---10---10---7---8---7--8-----|
A|------------------------------|
E|------------------------------|

  F             C             Dm9                        Bb#11
Where I go, I just don't know.   I got to, got to, gotta take it slow. 
 F              C             Dm9    Dm9    Dm9  Dm9        Am Am     Bb
When I find my peace of mind,    I'm gonna give you some of my good time.


[Verse]

No rhythm just lead in this verse!! 

Guitar II                          
e|--------|-10----10------------------------------------|
B|---10---|-----------10/13\11\10h11p10\6\3-------------|
G|--------|----------------------------------3----------|
D|--------|---------------------------------------------|
A|--------|---------------------------------------------|
E|--------|---------------------------------------------|
 Guitar II                          
e|------------------------------------------------------|
B|-----------------10/13\11\10\6------------------------|
G|------------------------------------------------------|
D|------------------------------------------------------|
A|------------------------------------------------------|
E|------------------------------------------------------|


[Chorus] 

Same as above


[Solo]

e|-------------------|----|-----------8--------|------------------|
B|-10\8--6--8/10--6~-|----|-/10-10-10----10\8--|-----6---------6--|
G|-------------------|----|--------------------|--------/7--------|
D|-------------------|----|--------------------|------------------|
A|-------------------|----|--------------------|------------------|
E|-------------------|----|--------------------|------------------|
    
e|----------------------|--------|--------------/10\8----------|------------|
B|-/10--8--6--8--10-6/8-|-\6-----|-/10--10--10----------10--10-|-\8-\6-\5---|
G|----------------------|-----7--|-----------------------------|------------|
D|----------------------|--------|-----------------------------|------------|
A|----------------------|--------|-----------------------------|------------|
E|----------------------|--------|-----------------------------|------------|

     
[Bridge]

(with rhythm progression, vary and add bass notes here and there)|

    Dm         C               Am
e|--------------------------|-----------------------------------|
B|--6---6--x-x-5----5--5----|--1-1-1-1-1-1-1-1-1-1-1-1-1-1-1-1--|
G|--7---7--x-x-5----5--5----|--2-2-2-2-2-2-2-2-2-2-2-2-2-2-2-2--|
D|--7---7--x-x-5----5--5----|--2-2-2-2-2-2-2-2-2-2-2-2-2-2-2-2--|
A|--5---5--x-x-3----3--3----|--0-0-0-0-0-0-0-0-0-0-0-0-0-0-0-0--|
E|--------------------------|-----------------------------------|
 |                                                                
 |Guitar II                                                      
e|----------/10~~~~~~~~------------------------------------------|
B|---------------------------------------------------------------|
G|---------------------------------------------------------------|
D|---------------------------------------------------------------|
A|---------------------------------------------------------------|
E|---------------------------------------------------------------|

e|--------------------------|-----------------------------------|
B|--6---6--x-x-5----5--5----|--1-1-1-1-1-1-1-1-1-1-1-1-1-1-1-1--|
G|--7---7--x-x-5----5--5----|--2-2-2-2-2-2-2-2-2-2-2-2-2-2-2-2--|
D|--7---7--x-x-5----5--5----|--2-2-2-2-2-2-2-2-2-2-2-2-2-2-2-2--|
A|--5---5--x-x-3----3--3----|--0-0-0-0-0-0-0-0-0-0-0-0-0-0-0-0--|
E|--------------------------|-----------------------------------|
 |Guitar II                                                      |     
e|-------------/10~~~~~~~~~~~~~~(10)\8\5~~~~~~~~~~~~~~~~~~~~~~~~~|
B|---------------------------------------------------------------|
G|--5/7----------------------------------------------------------|
D|---------------------------------------------------------------|
A|---------------------------------------------------------------|
E|---------------------------------------------------------------|
                                                                
e|--------------------------|-----------------------------------|
B|--6---6--x-x-5----5--5----|--1-1-1-1-1-1-1-1-1-1-1-1-1-1-1-1--|
G|--7---7--x-x-5----5--5----|--2-2-2-2-2-2-2-2-2-2-2-2-2-2-2-2--|
D|--7---7--x-x-5----5--5----|--2-2-2-2-2-2-2-2-2-2-2-2-2-2-2-2--|
A|--5---5--x-x-3----3--3----|--0-0-0-0-0-0-0-0-0-0-0-0-0-0-0-0--|
E|--------------------------|-----------------------------------|
 | Guitar II                                                      
e|(5)/10---------------------------------------------------------|
B|---------------------------------------------------------------|
G|---------------------------------------------------------------|
D|---------------------------------------------------------------|
A|---------------------------------------------------------------|
E|---------------------------------------------------------------|

e|--------------------------|-----------------------------------|
B|--6---6--x-x-5----5--5----|--1--1--3--------------------------|
G|--7---7--x-x-5----5--5----|--2--2--3--------------------------|
D|--7---7--x-x-5----5--5----|--2--2--3--------------------------|
A|--5---5--x-x-3----3--3----|--0--0--1--------------------------|
E|--------------------------|-----------------------------------|
 | Guitar II                                                      
e|-------------/10~~~~~~~~(10)\8---------------------------------|
B|--------------------------------10\6---------------------------|
G|--5/7----------------------------------------------------------|
D|---------------------------------------------------------------|
A|---------------------------------------------------------------|
E|---------------------------------------------------------------|


[Verse] 

Same as above

No guitar part first time round!!!

       F             C            Dm    Bb/Dm  
e|-------1----------------------|--------------------|
B|-------1-----------5-—5-------|-6--6-6-6-6---------|
G|-------2-----------5--5-------|-7--7-7-7-7---------|
D|-------3-----------5--5-------|-7--7-7-7-7---------|
A|-------3--------3--3--3---5/7-|-5--5-5-5-X---------|
E|-0--1--1---3/5----------------|----------6---------|
 |                                                   |
 | Guitar II                                         |          
e|10~~~---------------------8/10~~-------------------|
B|---------------------------------------------------|
G|---------------------------------------------------|
D|---------------------------------------------------|
A|---------------------------------------------------|
E|---------------------------------------------------|

    Dm             F                        C       Gm
e|-----------------------------------------|----------3---3-3---|
B|--6-6-6-6-6-6-6-X-8--8--8--8--8--8--8--X-|-3-3-3-3--3---3-3---|
G|--7-7-7-7-7-7-7-X-10-10-10-10-10-10-10-X-|-5-5-5-5--3---3-3---|
D|--7-7-7-7-7-7-7-X-10-10-10-10-10-10-10-X-|-5-5-5-5—-5---5-5---|
A|--5-5-5-5-5-5-5-X-10-10-10-10-10-10-10-X-|-5-5-5-5--5---5-5---|
E|-----------------------------------------|--------------------|
 | Guitar II                                                    |
e|13/10----------------------10/11\10\6-------------------------|
B|--------------------------------------------------------6/8\6-|
G|--------------------------------------------------------------|
D|--------------------------------------------------------------|
A|--------------------------------------------------------------|
E|--------------------------------------------------------------|

       F             C            Dm    Dm  
e|-------1----------------------|----------------------|
B|-------1-----------5-—5-------|-6---------------6----|
G|-------2-----------5--5-------|-7-(/10)10h12p10-7----|
D|-------3-----------5--5-------|-7-(/10)10-------7----|
A|-------3--------3--3--3---5/7-|-5---------------5----|
E|-0--1--1---3/5----------------|----------------------|
 |                                                     |
 | Guitar II                                           |
e|----------------|------------------------------------|
B|----------------|---------/10------------------------|
G|--10------------|-----------------------10-----(10)--|
D|----------------|------------------------------------|
A|----------------|------------------------------------|
E|----------------|------------------------------------|


[Ending Chorus] 

(same chords as usual chorus but this time strummed heavily)|

  F             C             Dm9                        Bb#11
Where I go, I just don't know.   I got to, got to, gotta take it slow. 
 F              C             Dm9    Dm9    Dm9  Dm9        Am Am     Bb  F 
When I find my peace of mind,    I'm gonna give you some of my good time.

e|--------------|---------------|------------|-------------------|
B|--/10---------|---------8\6---|-6----------|--------------6/8\-|
G|--------------|---------------|------------|--5/7--------------|
D|--------------|---------------|------------|-------------------|
A|--------------|---------------|------------|-------------------|
E|--------------|---------------|------------|-------------------|
                                  
e|--------------------|---------------|-------------------------|
B|-\6-----------11/13-|--11\10--------|--11\10---------10/15----|
G|--------------------|---------------|-------------------------|
D|--------------------|---------------|-------------------------|
A|--------------------|---------------|-------------------------|
E|--------------------|---------------|-------------------------|
                               
e|------------------|-----------------|--------------|---------------------|
B|--15------15------|---------13------|-/10----------|----------10---------|
G|------------------|--/14--------14--|----------10--|---9/10--------10----|
D|------------------|-----------------|--------------|---------------------|
A|------------------|-----------------|--------------|---------------------|
E|------------------|-----------------|--------------|---------------------|
                                 
e|-------------------|-------------------|---------|
B|----------8--\6----|--------10---------|---------|
G|--9/10-------------|--9/10-------10----|--(10)---|
D|-------------------|-------------------|---------|
A|-------------------|-------------------|---------|
E|-------------------|-------------------|---------|
 
                                 
Any problems: danielgregory69@hotmail.com
Cheers


************************************
| x   Dead note
| (n) Ghost note
| h   Hammer-on
| p   Pull-off
| /   Slide up
| \   Slide down
| ~   Vibrato
************************************

            
            
Suggest correction
Creating personal tab
Creating personal tab
You can edit any tab online and save it as your Personal.

You can edit, replace or remove any tab part or add personal notes – all changes will be seen only by you.

Personal tabs can be accessed anytime from any device, even offline.
Learn more »
comments
print report bad tab
26 comments total. Showing first comments.
+9 reply
Nick-182 10 Sep 04, 2005 08:00 PM

DU...DU..DUDE!!! great tab u derserve a happy point for that tab!lol

+7 reply
af2w131f 20 Mar 26, 2006 05:48 PM

Dude got some of the chords upside down?

+1 reply
i_love_tabs 10 Jun 30, 2006 12:54 AM

mate thats one fairdinkum tab tanks heaps mate

guest
You may want to rate the tab now too:
select rating
Wanna post a correction for this tab? Suggest correction