Oops, an error
Loading. Please wait.

Stadium Arcadium - Jupiter Tab

version 1
version 1

Album

Interactive

87,162 views 45 this week
32 commentsread comments
1 2 3 4 5
x 48
add to favorites
launch autoscroll
font size
0
reset
how to read this tab
guitar tuner
Autoscroll
slow
fast
+/-
esc
set tempo
stop
Help us to improve Ultimate-Guitar.com Take our survey!
×
Author
Jupiter
1. Dani California
tabbed by MnW

e|----------------|----------------|
B|-----5-------3--|-----6-------5--|
G|-----5-------4--|-----7-------5--|
D|-----7-------5--|-----7-------7--|2x
A|----------------|-5-5------------|
E|-5-5—--x-3-3----|--------5-5-----|

Gettin' born in the state of Mississippi  Papa was a copper and momma was a hippie 
In Alabama, she would swing a hammer      Price you gotta pay when you break the panorama 
e|----------------|----------------|
B|-----5-------3--|-----6-------5--|
G|-----5-------4--|-----7-------5--|
D|-----7-------5--|-----7-------7--|2x
A|----------------|-5-5------------|
E|-5-5—--x-3-3----|--------5-5-----|

She never knew that there was anything more than poor 
e|-------------------------|--------------------|
B|-------------------------|--------------------|
G|-----5h7p5--------4h5p4--|------7------x----5-|
D|-7--------7—-x-5-------5-|-0-----------x-5h7--|
A|-------------------------|--------------------|
E|-------------------------|--------------------|
What in the world does your company take me for 
-------------------------|-----------------5\-|
-------------------------|-----------------5\-|
-----5h7p5--------4h5p4--|------7------x---5\-|
-7--------7—-x-5-------5-|-0-----------x------|
-------------------------|--------------------|
-------------------------|--------------------|

(same as 1st verse)
Black bandana, sweet Louisiana 
Robbin' on a bank in the state of Indiana 
She's a runner, rebel and a stunner 
condemned everywhere sayin' baby whatcha gonna 

Lookin down the barrel of a hot METAL .45 
e|-------------------------|--------------------|
B|-------------------------|--------------------|
G|-----5h7p5--------4h5p4--|------7------x----5-|
D|-7--------7—-x-5-------5-|-0-----------x-5h7--|
A|-------------------------|--------------------|
E|-------------------------|--------------------|
Just another way to survive 
-------------------------|-------------------|
-------------------------|-6-6-6-6-6-6-6-6-6-|
-----5h7p5--------4h5p4--|-7-7-7-7-7-7-7-7-7-|
-7--------7—-x-5-------5-|-7-7-7-7-7-7-7-7-7-|
-------------------------|-5-5-5-5-5-5-5-5-5-|
-------------------------|-------------------|


[Chorus]
California rest in peace, 
Simultaneous release, 
California Show your teeth, 
e|-------------------------------------|
B|-------------------------------------|
G|-----------5-5-xx-5/7-7-7-7x7--------|
D|-3-3-3-xx--5-5-xx-5/7-7-7-7x7--5-5-5-|
A|-3-3-3-xx--3-3-xx-3/5-5-5-5x5--5-5-5-|
E|-1-1-1-xx----------------------3-3-3-| x3

She's my priestess I'm your priest  Yeah Yeah 
e|--------------------------------|--------------------|
B|--------------------------------|--------------------|
G|-----------5-5-xx-5/7-7-7-7x7x7-|-x7x7-x7x7----------|
D|-3-3-3-xx--5-5-xx-5/7-7-7-7x7x7-|-x7x7-x7x7----------| (number) means only first chorus 
A|-3-3-3-xx--3-3-xx-3/5-5-5-5x5x5-|-x5x7-x5x5—(5)---(0)|
E|-1-1-1-xx-----------------------|-------------(0h3)--| 


(2 guitars)
e|-8---7---10---12---|-8---7---10---17---|
B|-------------------|-------------------|
G|-9---7---10---14---|-9---7---10---14---|
D|-------------------|-------------------|
A|-------------------|-------------------|
E|-------------------|-------------------|


She's a lover, baby and a fighter  She should've seen it comin when it got a little brighter 
With a name like Dani California   The day was gonna come when I was gonna mourn ya 
e|----------10--------|----------10--------|
B|-10---8--------10---|-10---8--------10---|
G|--------------------|--------------------|2x
D|--------------------|--------------------|
A|--------------------|--------------------|
E|--------------------|--------------------|
A little loaded she was stealing another breath 
-------------------------|--------------------|
-------------------------|--------------------|
-----5h7p5--------4h5p4--|------7------x----5-|
-7--------7—-x-5-------5-|-0-----------x-5h7--|
-------------------------|--------------------|
-------------------------|--------------------|
I love my baby to death
-------------------------|-------------------|
-------------------------|-6-6-6-6-6-6-6-6-6-|
-----5h7p5--------4h5p4--|-7-7-7-7-7-7-7-7-7-|
-7--------7—-x-5-------5-|-7-7-7-7-7-7-7-7-7-|
-------------------------|-5-5-5-5-5-5-5-5-5-|
-------------------------|-------------------|


[Chorus]


Who knew the other side of you
Who knew the other side you proved
e|----7------7------|---7---------------|
B|----7------7------|---8---------------|
G|----7------7------|---7-------x-6-----|2x
D|------------------|-------------------|
A|------------------|-------------------|
E|------------------|-------------------|
Too true to say goodbye to you
----7------7------|---7---------------|
----7------7------|---8---------------|
----7------7------|---7-------x-6-----|
------------------|-------------------|
------------------|-------------------|
------------------|-------------------|
 |                  |                   |
------------------|-------------------|
-12---------------|---12-------10-----|
------------------|-------------------|
------------------|-------------------|
------------------|-------------------|
------------------|-------------------|
Too true too sad sad sad
----7------7------|---7---------------|
----7------7------|---7---------------|
----7------7------|---7---------------|
------------------|-------------------|
------------------|-------------------|
------------------|-------------------|
 |                  |                   |
------------------|-------------------|
-12---------------|-------------------|
------------------|-------------------|
------------------|-------------------|
------------------|-------------------|
------------------|-------------------|

First to fade her, gifted and I made her One for the now and eleven for the later 
Never made it, up to Minnesota  North Dakota man was a comin' for the quota 
e|-------------------|-------------------|
B|-------------------|-------------------|
G|-9---7---10---9----|-9---7---10---14---|
D|-------------------|-------------------|
A|-------------------|-------------------|
E|-------------------|-------------------|
Down in the badlands she was saving the best for last 
-------------------------|--------------------|
-------------------------|--------------------|
-----5h7p5--------4h5p4--|------7------x----5-|
-7--------7—-x-5-------5-|-0-----------x-5h7--|
-------------------------|--------------------|
-------------------------|--------------------|
It only hurts when I laugh              Gone too fast
-------------------------|-------------------|-------------------|
-------------------------|-6-6-6-6-6-6-6-6-6-|-9-9-9-9-9-9-9-9-9-|
-----5h7p5--------4h5p4--|-7-7-7-7-7-7-7-7-7-|-9-9-9-9-9-9-9-9-9-|
-7--------7—-x-5-------5-|-7-7-7-7-7-7-7-7-7-|-9-9-9-9-9-9-9-9-9-|
-------------------------|-5-5-5-5-5-5-5-5-5-|-7-7-7-7-7-7-7-7-7-|
-------------------------|-------------------|-------------------|
 |                         |                   |                   |
-------------------------|-13----------------|-16----------------|
-------------------------|-------------------|-------------------|
-------------------------|-------------------|-------------------|
-------------------------|-------------------|-------------------|
-------------------------|-------------------|-------------------|
-------------------------|-------------------|-------------------|


[Chorus]

2nd Chorus:
California rest in peace, 
Simultaneous release, 
e|-------------------------------------|
B|-------------------------------------|
G|-----------5-5-xx-5/7-7-7-7x7--------|
D|-3-3-3-xx--5-5-xx-5/7-7-7-7x7--5-5-5-|
A|-3-3-3-xx--3-3-xx-3/5-5-5-5x5--5-5-5-|
E|-1-1-1-xx----------------------3-3-3-| 
 |                                     |2x
-------------------------------------|
-------------------------------------|
-10---------12-------14------10—12p10|
-------------------------------------|
-------------------------------------|
-------------------------------------|

California Show your teeth, 
e|-------------------------------------|
B|-------------------------------------|
G|-----------5-5-xx-5/7-7-7-7x7--------|
D|-3-3-3-xx--5-5-xx-5/7-7-7-7x7--5-5-5-|
A|-3-3-3-xx--3-3-xx-3/5-5-5-5x5--5-5-5-|
E|-1-1-1-xx----------------------3-3-3-| 
 |                                     |
-----------12-------13---------10----|
-10----------------------------------|
-------------------------------------|
-------------------------------------|
-------------------------------------|
-------------------------------------|

She's my priestess I'm your priest  Yeah Yeah 
e|--------------------------------|-----------|
B|--------------------------------|-----------|
G|-----------5-5-xx-5/7-7-7-7x7x7-|-x7x7-x7x7-|
D|-3-3-3-xx--5-5-xx-5/7-7-7-7x7x7-|-x7x7-x7x7-|
A|-3-3-3-xx--3-3-xx-3/5-5-5-5x5x5-|-x5x7-x5x5-|
E|-1-1-1-xx-----------------------|-----------| 
 |                                |           |
-----------12-------13----------|-17--------|
-10-----------------------------|-----------|
--------------------------------|-----------|
--------------------------------|-----------|
--------------------------------|-----------|
--------------------------------|-----------|


e|-----5-------------------------------------|
B|-----6-------------------------------------|
G|---5---7~----------------------------------|
D|-7--------7\5p3—5p3-5p3-5p3----------------|
A|---------------------------5-----------/5--|
E|------------------------------/5--3--1-----|

e|-----5----------------------------------------|
B|-----6--------------------------------13-15~/-|
G|---5---7~--2h5p2-5p2-5p2-5p2-5/7---14---------|
D|-7--------------------------------------------|
A|----------------------------------------------|
E|----------------------------------------------|

e|-----5-------------------------------------|
B|-----6-------------------------------------|
G|---5---7~----------------------------------|
D|-7--------7\5p3—5p3-5p3-5p3----------------|
A|---------------------------5-----------/5--|
E|------------------------------/5--3--1-----|

e|-----5----------------------------------------|
B|-----6--------------------------------13-15~/-|
G|---5---7~--2h5p2-5p2-5p2-5p2-5/7---14---------|
D|-7--------------------------------------------|
A|----------------------------------------------|
E|----------------------------------------------|

e|---------------------------------------------------------------|
B|------13-15-13----15-13----15-13----15-13----15-13----15-13----|
G|---14----------14-------14-------14-------14-------14-------14-|
D|---------------------------------------------------------------|
A|---------------------------------------------------------------|
E|---------------------------------------------------------------|

e|-----5----------------------------------------|
B|-----6----------------------------------------|
G|---5---7~--2h5p2-5p2-5p2-------------5--------|
D|-7-----------------------5p3---3-5/7---5p3----|
A|-----------------------------5-------------5--|
E|----------------------------------------------|

e|-----5----------------------------------------|
B|-----6--------------------------------13-b15~-|
G|---5---7~--2h5p2-5p2-5p2-5p2-5/7---14---------|
D|-7--------------------------------------------|
A|----------------------------------------------|
E|----------------------------------------------|

e|-----5-------------------------------------|
B|-----6-------------------------------------|
G|---5---7~----------------------------------|
D|-7--------7\5p3—5p3-5p3-5p3----------------|
A|---------------------------5-----------/5--|
E|------------------------------/5--3--1-----|

e|----------------------------------------------|
B|----10h13p10---10h13p10---10h13p10---10h13p10-|
G|-b12--------b12--------b12--------b12---------| played pretty fast 
D|----------------------------------------------|repeat this a few times.
A|----------------------------------------------|
E|----------------------------------------------|

e|-13h15-15-13h15-15-13h15-15-13h15-15-|
B|-------------------------------------|
G|-------------------------------------| also pretty fast
D|-------------------------------------| repeat a few times
A|-------------------------------------|
E|-------------------------------------|

e|------13---------------------------------------------|
B|-13h15--15-13-----10h13p10---10h13p10----------------|
G|---------------b12--------b12--------b12~~p10--------|
D|----------------------------------------------12-----|
A|-----------------------------------------------------|
E|-----------------------------------------------------|

2. Snow((hey ho))
tabbed by Robert

[Intro]
----------------------------------I------------------------------------I
----------------------------------I------------------------------------I
----4---4h6h4---4-----4---4h6h4---I------------------------6---6h8h6---I
--6---6-------6-----6---6-------6-I----4---4h6h4---4-----8---8-------8-I
6-----------------7---------------I--6---6-------6---6/9---------------I
----------------------------------I7-----------------------------------I
x4



[Verse 1]
----------------------------------I------------------------------------I
----------------------------------I------------------------------------I
----4---4h6h4---4-----4---4h6h4---I------------------------6---6h8h6---I
--6---6-------6-----6---6-------6-I----4---4h6h4---4-----8---8-------8-I
6-----------------7---------------I--6---6-------6---6/9---------------I
----------------------------------I7-----------------------------------I
Repeat until bridge



[Bridge]
7-----7----7---7----7---7---7----7I7-----7---7---7----7---7---7----9---I
9-----9----9---9----9---9---9----9I9-----9---9---9----9---9---9----11--I
8-----8----8---8----8---8---8----8I8-----8---8---8----8---8---8----11--I
9-----9----9---9----9---9---9----9I9-----9---9---9----9---9---9----11--I
----------------------------------I------------------------------------I
----------------------------------I------------------------------------I

11--11--11--11--11--11--11--11----I11--11--11--11--11---9--9--9--------I
12--12--12--12--12--12--12--12----I12--12--12--12--12---11-11-11-------I
13--13--13--13--13--13--13--13----I13--13--13--13--13---11-11-11-------I
13--13--13--13--13--13--13--13----I13--13--13--13--13---11-11-11-------I
----------------------------------I------------------------------------I
----------------------------------I------------------------------------I

7-----7----7---7----7---7---7----7I7-----7---7---7----7---7---7----7---I
9-----9----9---9----9---9---9----9I9-----9---9---9----9---9---9----9---I
8-----8----8---8----8---8---8----8I8-----8---8---8----8---8---8----8---I
9-----9----9---9----9---9---9----9I9-----9---9---9----9---9---9----9---I
----------------------------------I------------------------------------I
----------------------------------I------------------------------------I



[Chorus]
7---7---7---7---7---7---7---7-----I6---6---6---6---6---6---6---6-------I
7---7---7---7---7---7---7---7-----I7---7---7---7---7---7---7---7-------I
8---8---8---8---8---8---8---8-----I8---8---8---8---8---8---8---8-------I
9---9---9---9---9---9---9---9-----I8---8---8---8---8---8---8---8-------I
9---9---9---9---9---9---9---9-----I------------------------------------I
----------------------------------I------------------------------------I

e|11--11--11--11--11--11--11--11----I11--11--11--11--11--11--11--11------I
B|12--12--12--12--12--12--12--12----I12--12--12--12--12--12--12--12------I
G|13--13--13--13--13--13--13--13----I13--13--13--13--13--13--13--13------I
D|----------------13--13--13--13----I13--13--13--13--13--13--13--13------I
A|----------------------------------I11--11--11--11--11--11--11--11------I
E|----------------------------------I----------------11--11--11--11------I
Repeat until verse



[Verse 2]
----------------------------------I------------------------------------I
----------------------------------I------------------------------------I
----4---4h6h4---4-----4---4h6h4---I------------------------6---6h8h6---I
--6---6-------6-----6---6-------6-I----4---4h6h4---4-----8---8-------8-I
6-----------------7---------------I--6---6-------6---6/9---------------I
----------------------------------I7-----------------------------------I
Repeat until bridge



[Bridge]
7-----7----7---7----7---7---7----7I7-----7---7---7----7---7---7----9---I
9-----9----9---9----9---9---9----9I9-----9---9---9----9---9---9----11--I
8-----8----8---8----8---8---8----8I8-----8---8---8----8---8---8----11--I
9-----9----9---9----9---9---9----9I9-----9---9---9----9---9---9----11--I
----------------------------------I------------------------------------I
----------------------------------I------------------------------------I

11--11--11--11--11--11--11--11----I11--11--11--11--11---9--9--9--------I
12--12--12--12--12--12--12--12----I12--12--12--12--12---11-11-11-------I
13--13--13--13--13--13--13--13----I13--13--13--13--13---11-11-11-------I
13--13--13--13--13--13--13--13----I13--13--13--13--13---11-11-11-------I
----------------------------------I------------------------------------I
----------------------------------I------------------------------------I

7-----7----7---7----7---7---7----7I7-----7---7---7----7---7---7----7---I
9-----9----9---9----9---9---9----9I9-----9---9---9----9---9---9----9---I
8-----8----8---8----8---8---8----8I8-----8---8---8----8---8---8----8---I
9-----9----9---9----9---9---9----9I9-----9---9---9----9---9---9----9---I
----------------------------------I------------------------------------I
----------------------------------I------------------------------------I



[Chorus]
7---7---7---7---7---7---7---7-----I6---6---6---6---6---6---6---6-------I
7---7---7---7---7---7---7---7-----I7---7---7---7---7---7---7---7-------I
8---8---8---8---8---8---8---8-----I8---8---8---8---8---8---8---8-------I
9---9---9---9---9---9---9---9-----I8---8---8---8---8---8---8---8-------I
9---9---9---9---9---9---9---9-----I------------------------------------I
----------------------------------I------------------------------------I

e|11--11--11--11--11--11--11--11----I11--11--11--11--11--11--11--11------I
B|12--12--12--12--12--12--12--12----I12--12--12--12--12--12--12--12------I
G|13--13--13--13--13--13--13--13----I13--13--13--13--13--13--13--13------I
D|----------------13--13--13--13----I13--13--13--13--13--13--13--13------I
A|----------------------------------I11--11--11--11--11--11--11--11------I
E|----------------------------------I----------------11--11--11--11------I
Repeat until outro/solo



Outro/solo (with distortion)
----------------------------------I------------------------------------I
7---------------7--------7--------I11--------------11-------11---------I
9b11------------9b11-----9b11-----I13b15-----------13b15----13b15------I
----------------------------------I------------------------------------I
----------------------------------I------------------------------------I
----------------------------------I------------------------------------I

16--------------16-------16-------I16--------------16-------16----16---I
19b21-----------19b21----19b21----I19b21-----------19b21----19b21-19b21I
----------------------------------I------------------------------------I
----------------------------------I------------------------------------I
----------------------------------I------------------------------------I
----------------------------------I------------------------------------I

----------------------------------I------------------------------------I
7---------------7--------7--------I11--------------11-------11---------I
9b11------------9b11-----9b11-----I13b15-----------13b15----13b15------I
----------------------------------I------------------------------------I
----------------------------------I------------------------------------I
----------------------------------I------------------------------------I

----------------------------------I------------------------------------I
9---------------------------------I------------------------------------I
11b13-----------------------------I------------------------------------I
----------------------------------I------------------------------------I
----------------------------------I------------------------------------I
----------------------------------I------------------------------------I

3. Charlie
tabbed by MnW

e|--------------------------|
B|--------------------------|
G|-----------3-----------3--|
D|-----3---2-------3---2----|
A|---2---1-------2---1------|
E|-1-----------1------------|

e|-3-3-x-3-x-3---3-3-x-3-x-3---|
B|-3-3—x-3-x-3---3-3-x-3-x-3---|
G|-3-3—x-3-x-3---3-3-x-3-x-3---|repeat
D|-----------------------------|
A|-----------------------------|
E|-----------------------------|

On the boards, stitchin' time Get yours, got mine 
In a minute I’ll be there Sit tight get square 
You could do it at the hippodrome Slide back trombone 
Anybody got a TV at home That’s right unknown 
e|-3-3-x-3-x-3---3-3-x-3-x-3---|
B|-3-3—x-3-x-3---3-3-x-3-x-3---|
G|-3-3—x-3-x-3---3-3-x-3-x-3---|repeat
D|-----------------------------|
A|-----------------------------|
E|-----------------------------|

When I pick up on that smell 
Pick it up and run like hell 
Little woman save me some 
Better get up on your run 
e|-15-15-x-15-x-15---15-15-x-15-x-15---|
B|-15-15-x-15-x-15---15-15-x-15-x-15---|
G|-15-15-x-15-x-15---15-15-x-15-x-15---|repeat
D|-------------------------------------|
A|-------------------------------------|
E|-------------------------------------|

e|-15-15-x-15-x-15---15-15-x-15-x-15---|
B|-15-15-x-15-x-15---15-15-x-15-x-15---|
G|-15-15-x-15-x-15---15-15-x-15-x-15---|repeat
D|-------------------------------------|
A|-------------------------------------|
E|-------------------------------------|

[Chorus]
So much more than   Charlie's wakin' me 
To my core and      Charlie's shakin' me 
Tell my story       Charlie's makin' me 
e|-----------------|-------------------|
B|-----------------|-------------------|
G|-x-x-8-8-x-x-7-7-|-x-x-10-10-x-x-8-8-|
D|-x-x-8-8-x-x-8-8-|-x-x-10-10-x-x-8-8-|
A|-----------------|-------------------|
E|-----------------|-------------------|
Charlie's makin' me smile 
-----------------|---------------------------8--8—-8--8--8--8—-8-|
-----------------|-x-10-10-x-x-10-10-10-x-x-10-10-10-10-10-10-10-|
-x-x-8-8-x-x-7-7-|-x-10-10-x-x-10-10-10-x-x-10-10-10-10-10-10-10-|
-x-x-8-8-x-x-8-8-|-x-10-10-x-x-10-10-10-x-x----------------------|
-----------------|-----------------------------------------------|
-----------------|-----------------------------------------------|

Everybody do the twist Get the message, awfully swiss 
Move around like a scientist Lay down, get kicked 
Big picture and it never lies Big daddy scooted by 
Every wedding in disguise Some set, sometimes 

When I pick up on that smell 
Pick it up and run like hell 
Little woman, sing me a song 
Gotta get up on your run 

[Solo]
e|---------------------------------b13------------------------------------|
B|---------------11-13-b13----13p11-----b13~~p11-13-13-13p11--b11~~r~~b~~-|
G|-10h12\------12---------------------------------------------------------|
D|------------------------------------------------------------------------|
A|------------------------------------------------------------------------|
E|------------------------------------------------------------------------|

[Chorus]

e|-------------------|-------------------|
B|-------------------|-------------------|
G|-7--5---5----------|-7--5---5----------|
D|------8---8—-7--5--|------8---8--7--5--|
A|-------------------|-------------------|
E|-------------------|-------------------|

My heart, your skin  This love, I'm in 
We don't arrive, without a surprise
You're right, I'm wrong  We're freed, belong 
Intimate sight has come in to light 
e|-------------------|-------------------|
B|-------------------|-------------------|
G|-7--5---5----------|-7--5---5----------|
D|------8---8—-7--5--|------8---8--7--5--|
A|-------------------|-------------------|
E|-------------------|-------------------|

When i pick up on that smell 
Pick it up and run like hell 
Little women send me some 
Better get up on your run 
All i ever wanted too 
Was pick it up and run with you 
Slip it into a summer spell 
Double up and run like hell 

[Solo]
e|---------------------------------------------------13-15--------------|
B|---------------------------b13~~p11-----------b13---------b13~~p11----|
G|-10h12p10-12p10-12p10-etc-----------12--12-10---------------------12--|
D|----------------------------------------------------------------------|
A|----------------------------------------------------------------------|
E|----------------------------------------------------------------------|

[Chorus]

My heart, your skin  This love, I'm in 
We don't arrive, without a surprise
You're right, I'm wrong  We're freed, belong 
Intimate sight has come in to light 

My heart, your skin  This love, I'm in 
We don't arrive, without a surprise
You're right, I'm wrong  We're freed, belong 
e|-------------------|-------------------|
B|-------------------|-------------------|
G|-7--5---5----------|-7--5---5----------|
D|------8---8—-7--5--|------8---8--7--5--|
A|-------------------|-------------------|
E|-------------------|-------------------|
Intimate sight has come in to light 
-10-----------------|-10-----------------|
---13-11-13-11-10---|---13-11-13-11-10---|
-----------------12-|-----------------12-|
--------------------|--------------------|
--------------------|--------------------|
--------------------|--------------------|

[Solo]
e|--------------------------------------------------------------------------------|
B|-----------------------------b13-11---------b13-11------------11h13-11----------|
G|-b10—-10p7-b10—-b10-10p7-b10-------12-10-12-------12-10-12-12----------12-10-12-|
D|--------------------------------------------------------------------------------|
A|--------------------------------------------------------------------------------|
E|--------------------------------------------------------------------------------|

e|------------------------------------------------------|
B|------------------------------------------------------|
G|-12-10------------------------------------------------|
D|-------12-b10--8-10-8-10p8-----b8---------------------|
A|---------------------------10----10p8h10-10p8---8h10--|
E|---------------------------------------------10-------|

e|-------------------|--------------------|
B|-------------------|--------------------|
G|-7--5---5----------|-7--5---5---------3-|repeat
D|------8---8—-7-3h5-|------8---8--7-3h5--|
A|-------------------|--------------------|
E|-------------------|--------------------|

e|-------------------|--------------------------|
B|-------------------|--------------------------|
G|-7--5---5----------|-7--5---5-----------------|
D|------8---8—-7-3h5-|------8---8--7--5--3-3h5--|
A|-------------------|--------------------------|
E|-------------------|--------------------------|

4. Stadium Arcadium
tabbed by MnW

e|--------------------|--------------------|
B|--------------------|--------------------|
G|-------2-----2------|-------6-----6------|
D|-----4-----4--------|-----7-----7--------|
A|---4-----4----------|---7-----7----------|
E|-2------------------|-5------------------|

e|--------------------|-5---------7--------|
B|--------------------|-5---------9--------|
G|-------2-----2------|-6---------9--------|
D|-----4-----4--------|-7---------9--------|
A|---4-----4----------|-7---------7--------|
E|-2------------------|-5------------------|


Bells around St. Petersburg When I saw you 
e|--------------------|--------------------|
B|--------------------|--------------------|
G|-------2-----2------|-------6-----6------|
D|-----4-----4--------|-----7-----7--------|
A|---4-----4----------|---7-----7----------|
E|-2------------------|-5------------------|
I hope I get what you deserve And this is where I find 
--------------------|-5---------7--------|
--------------------|-5---------9--------|
-------2-----2------|-6---------9--------|
-----4-----4--------|-7---------9--------|
---4-----4----------|-7---------7--------|
-2------------------|-5------------------|


Smoke surrounds your perfect face And I’m falling 
e|--------------------|-----------------------|
B|--------------------|-----------------------|
G|-------2-----2------|-------6-----6--6h7-6--|
D|-----4-----4--------|-----7-----7---------7-|
A|---4-----4----------|---7-----7-------------|
E|-2------------------|-5---------------------|
 |                    |                       |
17p14h17p14h17p14h17|17p12h17p12h17p12h17p12|
--------------------|-----------------------|
--------------------|-----------------------|
--------------------|-----------------------|
--------------------|-----------------------|
--------------------|-----------------------|
Pushing a broom out into space And this is where I find a way 
--------------------|-5---------0--x-0-0-|
--------------------|-5---------0--x-0-0-|
-------2-----2------|-6---------1--x-1-1-|
-----4-----4--------|-7---------2--x-2-2-|
---4-----4----------|-7---------2--------|
-2------------------|-5---------0--------|
 |                    |                    |
17p14h17p14h17p14h17|17p12h17p12h17p12h17|
--------------------|--------------------|
--------------------|--------------------|
--------------------|--------------------|
--------------------|--------------------|
--------------------|--------------------|


[Chorus]
Bm      
The stadium arcadium 
  D
A mirror to the moon 
    A
I’m forming I’m warming 
E
State of the art Until the clouds come crashing 

Bm      
Stranger things have happened 
     D
Both before and after noon 
    A
I’m forming I’m warming 
E
Pushing myself And no I don’t mind asking 
 
e|--------------------|--------------------|
B|--------------------|--------------------|
G|-------2-----2------|-------6-----6------|
D|-----4-----4--------|-----7-----7--------|
A|---4-----4----------|---7-----7----------|
E|-2------------------|-5------------------|
 |                    |                    |
-14-----------------|--------------------|
---------------17---|-14-------------------|
--------------------|--------------------|
--------------------|--------------------|
--------------------|--------------------|
--------------------|--------------------|

e|--------------------|-5---------7--------|
B|--------------------|-5---------9--------|
G|-------2-----2------|-6---------9--------|
D|-----4-----4--------|-7---------9--------|
A|---4-----4----------|-7---------7--------|
E|-2------------------|-5------------------|
 |                    |                    |
--------------------|--------------------|
-14-----------------|-----------17-------|
----------------16--|-14--------13-------|
--------------------|--------------------|
--------------------|--------------------|
--------------------|--------------------|

 
Alone inside my forest room And it’s storming 
e|--------------------|--------------------|
B|--------------------|--------------------|
G|-------2-----2------|-------6-----6------|
D|-----4-----4--------|-----7-----7--------|
A|---4-----4----------|---7-----7----------|
E|-2------------------|-5------------------|
 |                    |                    |
--------------------|--------------------|
--------------------|--------------------|
--------------------|--------------------|
-16-----------------|--------------------|
--------------------|--------------------|
--------------------|--------------------|
I never thought I’d be in bloom But this is where I start
--------------------|-5---------7--------|
--------------------|-5---------9--------|
-------2-----2------|-6---------9--------|
-----4-----4--------|-7---------9--------|
---4-----4----------|-7---------7--------|
-2------------------|-5------------------|
 
Derelict days and the stereo plays For the all night crowd 
That it cannot phase   And I’m calling 
e|--------------------|--------------------|
B|--------------------|--------------------|
G|-------2-----2------|-------6-----6------|
D|-----4-----4--------|-----7-----7----b4r-|
A|---4-----4----------|---7-----7----------|
E|-2------------------|-5------------------|
Tedious weeds that the media breeds 
But the animal gets what the animal needs And I’m sorry 
--------------------|-5---------7--------|
--------------------|-5---------9--------|
-------2-----2------|-6---------9--------|
-----4-----4--------|-7---------9--------|
---4-----4----------|-7---------7--------|
-2------------------|-5------------------|

[Chorus]

[Bridge]
e|-------------------------------------------------|
B|-------------------------------------------------|
G|-------------------------------------6--6-6--6-6-|
D|-4--4-4--4-4-6--6-6--6-6-7--7-7--7-7-6--6-6--6-6-|repeat 6x
A|-4--4-4--4-4-6--6-6--6-6-7--7-7--7-7-4--4-4--4-4-|
E|-2--2-2--2-2-4--4-4--4-4-5--5-5--5-5-------------|
 |                                                 |
-------------------------------------------------|
-------------------------------------------------|
--------------------------------------11---9-----|
-b9-------------------------------------------11-|
-------------------------------------------------|
-------------------------------------------------|

e|-------------------------------------------------|
B|-------------------------------------------------|
G|-b9r-------------------------------------9-------|
D|--------------------------------------b9~~~rp7---|
A|-------------------------------------------------|
E|-------------------------------------------------|

e|-------------------------------------------------|
B|----------------------------------------7--9-----|
G|-------------------------------------------------|
D|-9h11---------------------------------b9~~~~rp7--|
A|-------------------------------------------------|
E|-------------------------------------------------| 

e|-------------------------------------------------|
B|----------------------------------------------7--|
G|-------------------------------------------9-----|
D|-9p7-----------------------------------b9--------|
A|--------------------------9----------------------|
E|-------------------------------------------------| 

e|------------------------------------------------------|
B|------------------------------------------------------|
G|-4--4-4--4-4-6--6-6--6-6-7--7-7--7-7-11--11-11--11-11-|repeat 2x
D|-4--4-4--4-4-6--6-6--6-6-7--7-7--7-7-11--11-11--11-11-|
A|-2--2-2--2-2-4--4-4--4-4-5--5-5--5-5--9---9--9---9--9-|
E|------------------------------------------------------|
 |                                                      |
------------------------------------------------------|
--------------------------------------------7--10-9-7-|
-------------------------------------------7----------|
-b9r--------------------------------------9-----------|
------------------------------------------------------|
------------------------------------------------------| 

e|------------------------------------------------------|
B|-b9-7---------------------------b10----10---9---7h10--|
G|------------------------------------------------------|
D|------------------------------------------------------|
A|------------------------------------------------------|
E|------------------------------------------------------|

e|-------------------------------------------------|
B|-------------------------------------------------|
G|-------------------------------------6--6-6--6-6-|
D|-4--4-4--4-4-6--6-6--6-6-7--7-7--7-7-6--6-6--6-6-|repeat 2
A|-4--4-4--4-4-6--6-6--6-6-7--7-7--7-7-4--4-4--4-4-|
E|-2--2-2--2-2-4--4-4--4-4-5--5-5--5-5-------------|
 |                                                 |
-------------------------------------------------|
-7-----------------------------------------------|
-------------------------------------b9~~r~~p6---|
-------------------------------------------------|
-------------------------------------------------|
-------------------------------------------------|

e|-------------------------------------------------|
B|-7-----------------------------------------------|
G|-----------------------------------------9-------|
D|--------------------------------------b9~~~r9-7--|
A|-------------------------------------------------|
E|-------------------------------------------------|





e|--9---9---9---9---9---9---9---9---9---9---9---9--|
B|--9---9---9---9---9---9---9---9---9---9---9---9--|
G|--9---9---9---9---9---9---9---9---9---9---9---9--|
D|-11--11--11--11--11--11--11--11--11--11--11--11--|didn’t tab the rhythm. 
A|-11--11--11--11--11--11--11--11--11--11--11--11--| You’ve got to find yourself
E|--9---9---9---9---9---9---9---9---9---9---9---9--|
 |                                                 |
---------------------------------9--11--9--------|
--------------------------------9---------12-----|
-------------------------------9-------------b11-|
-9/11------------------------11------------------|
-------------------------------------------------|
-------------------------------------------------|

e|-------9--9--9--9--9--9--9--9--9--9--9--9--9--9--|
B|-------7--7--7--7--7--7--7--7--7--7--7--7--7--7--|
G|-------7--7--7--7--7--7--7--7--7--7--7--7--7--7--|
D|----9--9—-9--9--9--9--9--9--9--9--9--9--9--9--9--|
A|-9--9--9-----------------------------------------|
E|-7--7--------------------------------------------|
 |                                                 |
---------------------------------9--7------------|
--------------------------------7------10—b9~~r--|
-11p9h11-----------------------7-----------------|
------------------------------9------------------|
-------------------------------------------------|
-------------------------------------------------|

e|--------------------|--------------------|
B|--------------------|--------------------|
G|-------2-----2------|-------6-----6------|
D|-----4-----4--------|-----7-----7--------|
A|---4-----4----------|---7-----7----------|
E|-2------------------|-5------------------|
 |                    |                    |
--------------------|--------------------|
-7------------------|--------------------|
--------------------|--------------------|
--------------------|--------------------|
--------------------|--------------------|
--------------------|--------------------|
                      And this is where I find 
--------------------|-5---------7--------|
--------------------|-5---------9--------|
-------2-----2------|-6---------9--------|
-----4-----4--------|-7---------9--------|
---4-----4----------|-7---------7--------|
-2------------------|-5------------------|

 
Rays of dust that wrap around 
Your citizen 
Kind enough to disavow 
And this is where I stand 

[Chorus]

Bm      
The stadium arcadium 
  D
A mirror to the moon 
    A
I’m forming I’m warming 
E
State of the art Until the clouds come crashing 

Bm      
Stranger things have happened 
     D
Both before and after noon 
    A                      E
I’m forming I’m warming to you


5. Hump de Bump 
tabbed by Cedarock

Standard Tuning

[Intro]
e|-------------------------------------------------------------------------------|
B|---6-- 6-- 6--6--6---6---------------------------------------------------------|
G|---5-- 5---5--5--5---5---------------------------------------------------------|
D|---4-- 4---4--4--4---4---------------------------------------------------------|
A|---5-- 5---5--5--5---5---------------------------------------------------------|
E|-------------------------------------------------------------------------------|

[Verse]
e|-----------------------------------------------------------------------------|
B|-----------------------------------------------------------------------------|
G|----7-5--5-x--7-5-5-x-5-7----------------------------------------------------|
D|-----------------------------------------------------------------------------|
A|-----------------------------------------------------------------------------|
E|-----------------------------------------------------------------------------|

Verse Fill

----------------|
-----6h8p6------|
----------------|


Pre-Chorus (Hump De Bump part) - with muting in between notes
e|-----x--x--- x--x---x-------------- x-----------------------------------------|
B|-----7--6--- 7--6---6h7----(x7)-----7-----7--7-7-7-7-7-7-7-7------------------|
G|-----5- 5--- 5--5---5-------------- 5-----7--7-7-7-7-7-7-7-7------------------|
D|-----x- x--- x--x---x-------------- x-----7--7-7-7-7-7-7-7-7------------------|
A|----------------------------------------  5--5-5-5-5-5-5-5-5------------------|
E|------------------------------------------------------------------------------|

Chorus (second time don't play after the *)

       D7#9       Bb7       A7         Dm/F      Bb7                       C
e|----------1--1---------------------------------------------------------------|
B|--6--6----3--3---5--5---6---6------------------------------------------------|
G|- 5--5----1--1---6--6---7---7------------------------------- 5---------------|   (x2)
D|- 4--4----3--3---5--5---6---6-----------3--------------5h7--5----------------|
A|- 5--5----1--1---7--7---8---8----1--3h5---5-----3*-5h7-----------------------|
E|-----------------5--5------- ------------------------------------------------|


Bridge/Percussion Solo - strum Dm (x57765) and crescendo (soft to loud)

End on
e|--------|
B|----6---|
G|--- 5---|
D|------- |
A|------- |
E|--------|

[Intro]
[Verse]
[Pre-Chorus]
[Chorus]
[Verse]
Pre Chorus
[Chorus]
Bridge/Percussion Solo
[Pre-Chorus]
[Chorus]


| /  slide up
|   slide down
| h  hammer-on
| p  pull-off
| ~  vibrato
| +  harmonic
| x  Mute note

6. She's only 18
tabbed by doylerrhcp

[Verse]

Riff A

e| --------------------/------------------|
B| --------------------/------------------|
G| ------3h5p3----3----/-------3h5p3---3--|
D| ---3h5------h5---5--/---3h5-------h5---|
A| --------------------/------------------|
E| --------------------/------------------|

Riff B

e| -------6h8p6----6---/------6h8p6----6-|
B| ---6h8-------h8---8-/--6h8-------h8---|
G| --------------------/-----------------|
D| --------------------/-----------------|
A| --------------------/-----------------|
E| --------------------/-----------------|


Verse structure:

Riff A  x8
Riff B  x4
Riff A  x2

[Chorus]

   C min   D# maj      G min     F maj

e| --3--------------/----3-----------1--------|
B| --4---------8----/----3-----------1--------|
G| --5---------8----/----3-----------2--------|
D| --5---------8----/----5-----------3--------|
A| --3---------6----/----5-----------3--------|
E| -----------------/----3-----------1--------|


e| --------/-----------------------------------
B| ---11---/--13-------------------------------
G| ---12---/--14-------------------------------
D| --------/-----------------------------------
A| --------/-----------------------------------
E| --------/-----------------------------------
Solo Tab by Nevj
Guitar

Tuning EADGBE


      2:19
e|-------------------------------------------------------------|
B|-------------------------------------------------------------|
G|-------------------------------------------------------------|
D|---------1-3/5--1--3-1h3v-------1-3/5--1-3-1-----------------|
A|----1/3---------------------1-3------------------------------|
E|-------------------------------------------------------------|

                      2:25
e|-------------------------------------------------------------|
B|--------------------------4b-----------6b7-4h6v--------------|
G|------3-5-3-5v---------3-5--5v-----3-5-----------------------|
D|--3/5--------------3/5---------------------------------------|
A|--fast-------------------------------------------------------|
E|-------------------------------------------------------------|

                    
e|-------6v----6-8---------------------------------------------|
B|---6/8-----8------8p6(p)4---6-6p4---4-6/8-6v--6-4------------|
G|----------------------------------5--------------------------|
D|-------------------------------------------------------------|
A|-------------------------------------------------------------|
E|-------------------------------------------------------------|

2:33
e|-------------------------------------------------------------|
B|--6-6-6-6p4--6-6p4--6-6p4--6-6p4--6-6p4----------------------|
G|-------------------------------------------------------------|
D|-------------------------------------------------------------|
A|-------------------------------------------------------------|
E|-------------------------------------------------------------|

e|---------6-10b11-8v------------x-----------13bbbbb15---------|
B|--6-4-6/8-8--------------------------------------------------|
G|-------------------------------------------------------------|
D|-------------------------------------------------------------|
A|-------------------------------------------------------------|
E|-------------------------------------------------------------|

2:40
e|---13b15-13p11-13v----13/15--18vvvvp15-----------------------|
B|--------------------------------------18p16--18-18-18p16-----|
G|---------------------------------------------------------17--|
D|-------------------------------------------------------------|
A|-------------------------------------------------------------|
E|-------------------------------------------------------------|

e|----------19-------------------------------------------------|
B|-16-18b19-------19r18p16-18-18-18-16----17\------------------|
G|-------------------------------------17----------------------|
D|-------------------------------------------------------------|
A|-------------------------------------------------------------|
E|-------------------------------------------------------------|

I think this is pretty accurate.

7. Slow Cheetah
tabbed by omer5omer5

     Play all the notes between ( )                                 
     E                              E   S  S  E   E  E   S  S  E    
e|----------------------------------------------------------------|
B|----------------------------------------------------------------|
G|----------------------------------------6----------------6------|
D|---------------------------------8----------------6-------------|
A|-----------------------------------------------4-----(4)---(4)--|
E|--6---------------------------------(6)---(6)-------------------|


    E  E   S  S  E   E  E   S  S  E      E  E   S  S  E   E  E   S  S  E    
e|-----------------------------6------|------------------------------------|
B|------------6-----------------------|------------------------------------|
G|-----8----------------6-------------|------------6----------------6------|
D|-------------------4-----(4)---(4)--|-----8----------------6-------------|
A|--6-----(6)---(6)-------------------|-------------------4-----(4)---(4)--|
E|------------------------------------|--6-----(6)---(6)-------------------|


                                         VOZ                                 
    E  E   S  S  E   E  E   S  S  E      E   E   S  S  E   E  E   S  S  E    
e|-----------------------------6------|-------------------------------------|
B|------------6-----------------------|-------------------------------------|
G|-----8----------------6-------------|-------------6----------------6------|
D|-------------------4-----(4)---(4)--|------8----------------6-------------|
A|--6-----(6)---(6)-------------------|--------------------4-----(4)---(4)--|
E|------------------------------------|--6------(6)---(6)-------------------|


    E  E   S  S  E   E  E   S  S  E      E  E   S  S  E   E  E   S  S  E    
e|-----------------------------6------|------------------------------------|
B|------------6-----------------------|------------------------------------|
G|-----8----------------6-------------|------------6----------------6------|
D|-------------------4-----(4)---(4)--|-----8----------------6-------------|
A|--6-----(6)---(6)-------------------|-------------------4-----(4)---(4)--|
E|------------------------------------|--6-----(6)---(6)-------------------|


    E  E   S  S  E   E  E   S  S  E      E  E    S  S E  E  E   S  S  E    
e|-----------------------------6------|-----8S--(6)-6-L-------------------|
B|------------6-----------------------|---------------L-----9------6------|
G|-----8----------------6-------------|-----------------------------------|
D|-------------------4-----(4)---(4)--|-----------------------------------|
A|--6-----(6)---(6)-------------------|-----------------------------------|
E|------------------------------------|--6------(6)------9-----(9)---(9)--|


    E  E   S  S  E   E  E   S  S  E      E  E    S  S E  E  E   S  S  E    
e|------------------------------------|-----8S--(6)-6-L-------------------|
B|------------------------------------|---------------L-----9------6------|
G|-----8------6-----------------------|-----------------------------------|
D|----------------------8------6------|-----------------------------------|
A|--6-----(6)---(6)--9-----(9)---(9)--|-----------------------------------|
E|------------------------------------|--6------(6)------9-----(9)---(9)--|


                                         Bajo                                 
    E  E   S  S  E   E  E   S  S  E      E    E   S  S  E   E  E   S  S  E    
e|------------------------------------|--------------------------------------|
B|------------------------------------|--------------------------------------|
G|-----8------6----------------6------|--------------6----------------6------|
D|----------------------8-------------|-------8----------------6-------------|
A|--6-----(6)---(6)--9-----(9)---(9)--|---------------------4-----(4)---(4)--|
E|------------------------------------|--6-------(6)---(6)-------------------|


    E  E   S  S  E   E  E   S  S  E      E  E   S  S  E   E  E   S  S  E    
e|-----------------------------6------|------------------------------------|
B|------------6-----------------------|------------------------------------|
G|-----8----------------6-------------|------------6----------------6------|
D|-------------------4-----(4)---(4)--|-----8----------------6-------------|
A|--6-----(6)---(6)-------------------|-------------------4-----(4)---(4)--|
E|------------------------------------|--6-----(6)---(6)-------------------|


    E  E   S  S  E   E  E   S  S  E      E  E    S  S E  E  E   S  S  E    
e|-----------------------------6------|-----8S--(6)-6-L-------------------|
B|------------6-----------------------|---------------L-----9------6------|
G|-----8----------------6-------------|-----------------------------------|
D|-------------------4-----(4)---(4)--|-----------------------------------|
A|--6-----(6)---(6)-------------------|-----------------------------------|
E|------------------------------------|--6------(6)------9-----(9)---(9)--|


    E  E   S  S  E   E  E   S  S  E      E  E    S  S E  E  E   S  S  E    
e|------------------------------------|-----8S--(6)-6-L-------------------|
B|------------------------------------|---------------L-----9------6------|
G|-----8------6-----------------------|-----------------------------------|
D|----------------------8------6------|-----------------------------------|
A|--6-----(6)---(6)--9-----(9)---(9)--|-----------------------------------|
E|------------------------------------|--6------(6)------9-----(9)---(9)--|


    Q    E.  S S S E  E.  S    E  E  E  S E  S S S S S S S  
e|--6----6---6-6-6-6--6---6-|--6--6--6--6-6--6-6-6-6-6-6-6-|
B|--6----6---6-6-6-6--6---6-|--6--6--6--6-6--6-6-6-6-6-6-6-|
G|--8----8---8-8-8-8--8---8-|--8--8--8--8-8--8-8-8-8-8-8-8-|
D|--8----8---8-8-8-8--8---8-|--8--8--8--8-8--8-8-8-8-8-8-8-|
A|--6----6---6---6----6---6-|-----6--6--6-6--6-6-6-6-6-6-6-|
E|--------------------------|------------------------------|


     E   E  E  S S E  E  E  E     Q    E  S E  S S S S S S S  
e|--(6)--6--6------------------|--6----6--6-6--6-6-6-6-6-6-6-|
B|---7---7--7--x-x-6--6--6-----|--7----7--7-6--7-7-7-7-6-6-6-|
G|---6---6--6--x-x-6--6--6-----|--8----8--8-8--8-8-8-8-8-8-8-|
D|---4---4--4--x-x-6--6--6-----|--8----8--8-8--8-8-8-8-8-8-8-|
A|-------------x-x-4--4--4-----|--6----6--6-6--6-6-6-6-6-6-6-|
E|-----------------------------|-----------------------------|


     E   E  E  S S E  E  E  E     Q    E  S E  S S S S S S S  
e|--(6)--6--6------------------|--6----6--6-6--6-6-6-6-6-6-6-|
B|---7---7--7--x-x-6--6--6-----|--7----7--7-6--7-7-7-7-6-6-6-|
G|---6---6--6--x-x-6--6--6-----|--8----8--8-8--8-8-8-8-8-8-8-|
D|---4---4--4--x-x-6--6--6-----|--8----8--8-8--8-8-8-8-8-8-8-|
A|-------------x-x-4--4--4-----|--6----6--6-6--6-6-6-6-6-6-6-|
E|-----------------------------|-----------------------------|


     E   E  E  S S E  E  E  E     Q    E  S E  S S S S S S S  
e|--(6)--6--6------------------|--6----6--6-6--6-6-6-6-6-6-6-|
B|---7---7--7--x-x-6--6--6-----|--7----7--7-6--7-7-7-7-6-6-6-|
G|---6---6--6--x-x-6--6--6-----|--8----8--8-8--8-8-8-8-8-8-8-|
D|---4---4--4--x-x-6--6--6-----|--8----8--8-8--8-8-8-8-8-8-8-|
A|-------------x-x-4--4--4-----|--6----6--6-6--6-6-6-6-6-6-6-|
E|-----------------------------|-----------------------------|


     E   E  E  S S E  E  E  E     Q    E.  S S S E  Q     
e|--(6)--6--6------------------|--6----6---6-6-6-6--6----|
B|---7---7--7--x-x-6--6--6-----|--6----6---6-6-6-6--6----|
G|---6---6--6--x-x-6--6--6-----|--8----8---8-8-8-8--8----|
D|---4---4--4--x-x-6--6--6-----|--8----8---8-8-8-8--8----|
A|-------------x-x-4--4--4-----|--6----6---6---6----6----|
E|-----------------------------|-------------------------|


    E  E   S  S  E   E  E   S  S  E      E  E   S  S  E   E  E   S  S  E    
e|------------------------------------|-----------------------------6------|
B|------------------------------------|------------6-----------------------|
G|------------6----------------6------|-----8----------------6-------------|
D|-----8----------------6-------------|-------------------4-----(4)---(4)--|
A|-------------------4-----(4)---(4)--|--6-----(6)---(6)-------------------|
E|--6-----(6)---(6)-------------------|------------------------------------|


    E  E   S  S  E   E  E   S  S  E      E  E   S  S  E   E  E   S  S  E    
e|------------------------------------|-----------------------------6------|
B|------------------------------------|------------6-----------------------|
G|------------6----------------6------|-----8----------------6-------------|
D|-----8----------------6-------------|-------------------4-----(4)---(4)--|
A|-------------------4-----(4)---(4)--|--6-----(6)---(6)-------------------|
E|--6-----(6)---(6)-------------------|------------------------------------|


    VOZ                                                                      
    E   E   S  S  E   E  E   S  S  E      E  E   S  S  E   E  E   S  S  E    
e|-------------------------------------|-----------------------------6------|
B|-------------------------------------|------------6-----------------------|
G|-------------6----------------6------|-----8----------------6-------------|
D|------8----------------6-------------|-------------------4-----(4)---(4)--|
A|--------------------4-----(4)---(4)--|--6-----(6)---(6)-------------------|
E|--6------(6)---(6)-------------------|------------------------------------|


    E  E   S  S  E   E  E   S  S  E      E  E   S  S  E   E  E   S  S  E    
e|------------------------------------|-----------------------------6------|
B|------------------------------------|------------6-----------------------|
G|------------6----------------6------|-----8----------------6-------------|
D|-----8----------------6-------------|-------------------4-----(4)---(4)--|
A|-------------------4-----(4)---(4)--|--6-----(6)---(6)-------------------|
E|--6-----(6)---(6)-------------------|------------------------------------|


    E  E    S  S E  E  E   S  S  E      E  E   S  S  E   E  E   S  S  E    
e|-----8S--(6)-6-L-------------------|------------------------------------|
B|---------------L-----9------6------|------------------------------------|
G|-----------------------------------|-----8------6-----------------------|
D|-----------------------------------|----------------------8------6------|
A|-----------------------------------|--6-----(6)---(6)--9-----(9)---(9)--|
E|--6------(6)------9-----(9)---(9)--|------------------------------------|


    E  E    S  S E  E  E   S  S  E      Q    E.  S S S E  E.  S  
e|-----8S--(6)-6-L-------------------|--6----6---6-6-6-6--6---6-|
B|---------------L-----9------6------|--6----6---6-6-6-6--6---6-|
G|-----------------------------------|--8----8---8-8-8-8--8---8-|
D|-----------------------------------|--8----8---8-8-8-8--8---8-|
A|-----------------------------------|--6----6---6---6----6---6-|
E|--6------(6)------9-----(9)---(9)--|--------------------------|


    E  E  E  S E  S S S S S S S     E   E  E  S S E  E  E  E   
e|--6--6--6--6-6--6-6-6-6-6-6-6-|--(6)--6--6------------------|
B|--6--6--6--6-6--6-6-6-6-6-6-6-|---7---7--7--x-x-6--6--6-----|
G|--8--8--8--8-8--8-8-8-8-8-8-8-|---6---6--6--x-x-6--6--6-----|
D|--8--8--8--8-8--8-8-8-8-8-8-8-|---4---4--4--x-x-6--6--6-----|
A|-----6--6--6-6--6-6-6-6-6-6-6-|-------------x-x-4--4--4-----|
E|------------------------------|-----------------------------|


    Q    E  S E  S S S S S S S    E  E  E  S S E  E  E  E   
e|--6----6--6-6--6-6-6-6-6-6-6-|--6--6--6------------------|
B|--7----7--7-6--7-7-7-7-6-6-6-|--7--7--7--x-x-6--6--6-----|
G|--8----8--8-8--8-8-8-8-8-8-8-|--6--6--6--x-x-6--6--6-----|
D|--8----8--8-8--8-8-8-8-8-8-8-|--4--4--4--x-x-6--6--6-----|
A|--6----6--6-6--6-6-6-6-6-6-6-|-----------x-x-4--4--4-----|
E|-----------------------------|---------------------------|


    Q    E  S E  S S S S S S S    E  E  E  S S E  E  E  E   
e|--6----6--6-6--6-6-6-6-6-6-6-|--6--6--6------------------|
B|--7----7--7-6--7-7-7-7-6-6-6-|--7--7--7--x-x-6--6--6-----|
G|--8----8--8-8--8-8-8-8-8-8-8-|--6--6--6--x-x-6--6--6-----|
D|--8----8--8-8--8-8-8-8-8-8-8-|--4--4--4--x-x-6--6--6-----|
A|--6----6--6-6--6-6-6-6-6-6-6-|-----------x-x-4--4--4-----|
E|-----------------------------|---------------------------|


    Q    E  S E  S S S S S S S    E  E  E  S S E  E  E  E   
e|--6----6--6-6--6-6-6-6-6-6-6-|--6--6--6------------------|
B|--7----7--7-6--7-7-7-7-6-6-6-|--7--7--7--x-x-6--6--6-----|
G|--8----8--8-8--8-8-8-8-8-8-8-|--6--6--6--x-x-6--6--6-----|
D|--8----8--8-8--8-8-8-8-8-8-8-|--4--4--4--x-x-6--6--6-----|
A|--6----6--6-6--6-6-6-6-6-6-6-|-----------x-x-4--4--4-----|
E|-----------------------------|---------------------------|


    Q    E.  S S S E  E  S S    E  S E  S S E  S S E  S E   
e|---------------------------|-----------------------------|
B|--6----6---6-6-6-6--6--6-6-|--6--6-6--6-6-6--6-6-6--6-6--|
G|--8----8---8-8-8-8--8--8-8-|--8--8-8--8-8-8--8-8-8--8-8--|
D|--8----8---8-8-8-8--8--8-8-|--8--8-8--8-8-8--8-8-8--8-8--|
A|--6----6---6---6----6--6-6-|--6--6-6--6-6-6--6-6-6--6-6--|
E|---------------------------|-----------------------------|


    E  E   S  S  E   E  E   S  S  E      E  E   S  S  E   E  E   S  S  E    
e|------------------------------------|-----------------------------6------|
B|------------------------------------|------------6-----------------------|
G|------------6----------------6------|-----8----------------6-------------|
D|-----8----------------6-------------|-------------------4-----(4)---(4)--|
A|-------------------4-----(4)---(4)--|--6-----(6)---(6)-------------------|
E|--6-----(6)---(6)-------------------|------------------------------------|


    E  E   S  S  E   E  E   S  S  E      E  E   S  S  E   E  E   S  S  E    
e|------------------------------------|-----------------------------6------|
B|------------------------------------|------------6-----------------------|
G|------------6----------------6------|-----8----------------6-------------|
D|-----8----------------6-------------|-------------------4-----(4)---(4)--|
A|-------------------4-----(4)---(4)--|--6-----(6)---(6)-------------------|
E|--6-----(6)---(6)-------------------|------------------------------------|


    E  E    S  S E  E  E   S  S  E      E  E   S  S  E   E  E   S  S  E    
e|-----8S--(6)-6-L-------------------|------------------------------------|
B|---------------L-----9------6------|------------------------------------|
G|-----------------------------------|-----8------6-----------------------|
D|-----------------------------------|----------------------8------6------|
A|-----------------------------------|--6-----(6)---(6)--9-----(9)---(9)--|
E|--6------(6)------9-----(9)---(9)--|------------------------------------|


    E  E    S  S E  E  E   S  S  E      E  E   S  S  E   E  E   S  S  E    
e|-----8S--(6)-6-L-------------------|------------------------------------|
B|---------------L-----9------6------|------------------------------------|
G|-----------------------------------|-----8------6----------------6------|
D|-----------------------------------|----------------------8-------------|
A|-----------------------------------|--6-----(6)---(6)--9-----(9)---(9)--|
E|--6------(6)------9-----(9)---(9)--|------------------------------------|


    E  E.  S E  E  S E  S E     E  E.  S E  E  S E  S E   
e|---------------------------|---------------------------|
B|-------------------6-------|--------------6----7--6----|
G|--------------6-------6----|---------8--------------8--|
D|---------6-------6------6--|-----8-----8-----8---------|
A|-----8-----8---------------|--6------------------------|
E|--9------------------------|---------------------------|


    E  E.  S E  E  S E  S E     E  E.  S E  E  S E  S E   
e|---------------------------|---------------------------|
B|-------------------6-------|--------------6----7--6----|
G|--------------6-------6----|---------8--------------8--|
D|---------6-------6------6--|-----8-----8-----8---------|
A|-----8-----8---------------|--6------------------------|
E|--9------------------------|---------------------------|


    E  E.  S E  E  S E  S E     E  E.  S E  E  S E  S E   
e|---------------------------|---------------------------|
B|-------------------6-------|--------------6----7--6----|
G|--------------6-------6----|---------8--------------8--|
D|---------6-------6------6--|-----8-----8-----8---------|
A|-----8-----8---------------|--6------------------------|
E|--9------------------------|---------------------------|


    E  E.  S E  E  S E  S E     E  E.  S E  E  S E  S E   
e|---------------------------|---------------------------|
B|-------------------6-------|--------------6----7--6----|
G|--------------6-------6----|---------8--------------8--|
D|---------6-------6------6--|-----8-----8-----8---------|
A|-----8-----8---------------|--6------------------------|
E|--9------------------------|---------------------------|


    E  E.  S E  E  S E  S E     Q    E.  S S S E  E.  S  
e|---------------------------|--6----6---6-6-6-6--6---6-|
B|-------------------6-------|--6----6---6-6-6-6--6---6-|
G|--------------6-------6----|--8----8---8-8-8-8--8---8-|
D|---------6-------6------6--|--8----8---8-8-8-8--8---8-|
A|-----8-----8---------------|--6----6---6---6----6---6-|
E|--9------------------------|--------------------------|


    E  E  E  S E  S S S S S S S    E  E  E  S S E  E  E  E   
e|--6--6--6--6-6--6-6-6-6-6-6-6-|--6--6--6------------------|
B|--6--6--6--6-6--6-6-6-6-6-6-6-|--7--7--7--x-x-6--6--6-----|
G|--8--8--8--8-8--8-8-8-8-8-8-8-|--6--6--6--x-x-6--6--6-----|
D|--8--8--8--8-8--8-8-8-8-8-8-8-|--4--4--4--x-x-6--6--6-----|
A|-----6--6--6-6--6-6-6-6-6-6-6-|-----------x-x-4--4--4-----|
E|------------------------------|---------------------------|


    Q    E  S E  S S S S S S S    E  E  E  S S E  E  E  E   
e|--6----6--6-6--6-6-6-6-6-6-6-|--6--6--6------------------|
B|--7----7--7-6--7-7-7-7-6-6-6-|--7--7--7--x-x-6--6--6-----|
G|--8----8--8-8--8-8-8-8-8-8-8-|--6--6--6--x-x-6--6--6-----|
D|--8----8--8-8--8-8-8-8-8-8-8-|--4--4--4--x-x-6--6--6-----|
A|--6----6--6-6--6-6-6-6-6-6-6-|-----------x-x-4--4--4-----|
E|-----------------------------|---------------------------|


    Q    E  S E  S S S S S S S    E  E  E  S S E  E  E  E   
e|--6----6--6-6--6-6-6-6-6-6-6-|--6--6--6------------------|
B|--7----7--7-6--7-7-7-7-6-6-6-|--7--7--7--x-x-6--6--6-----|
G|--8----8--8-8--8-8-8-8-8-8-8-|--6--6--6--x-x-6--6--6-----|
D|--8----8--8-8--8-8-8-8-8-8-8-|--4--4--4--x-x-6--6--6-----|
A|--6----6--6-6--6-6-6-6-6-6-6-|-----------x-x-4--4--4-----|
E|-----------------------------|---------------------------|


    Q    E  S E  S S S S S S S    E  E  E  S S E  E  E  E   
e|--6----6--6-6--6-6-6-6-6-6-6-|--6--6--6------------------|
B|--7----7--7-6--7-7-7-7-6-6-6-|--7--7--7--x-x-6--6--6-----|
G|--8----8--8-8--8-8-8-8-8-8-8-|--6--6--6--x-x-6--6--6-----|
D|--8----8--8-8--8-8-8-8-8-8-8-|--4--4--4--x-x-6--6--6-----|
A|--6----6--6-6--6-6-6-6-6-6-6-|-----------x-x-4--4--4-----|
E|-----------------------------|---------------------------|


    Q    E  S E  S S S S S S S    E  E  E  S S E  E  E  E   
e|--6----6--6-6--6-6-6-6-6-6-6-|--6--6--6------------------|
B|--7----7--7-6--7-7-7-7-6-6-6-|--7--7--7--x-x-6--6--6-----|
G|--8----8--8-8--8-8-8-8-8-8-8-|--6--6--6--x-x-6--6--6-----|
D|--8----8--8-8--8-8-8-8-8-8-8-|--4--4--4--x-x-6--6--6-----|
A|--6----6--6-6--6-6-6-6-6-6-6-|-----------x-x-4--4--4-----|
E|-----------------------------|---------------------------|


    Q    E  S E  S S S S S S S    E  E  E  S S E  E  E  E   
e|--6----6--6-6--6-6-6-6-6-6-6-|--6--6--6------------------|
B|--7----7--7-6--7-7-7-7-6-6-6-|--7--7--7--x-x-6--6--6-----|
G|--8----8--8-8--8-8-8-8-8-8-8-|--6--6--6--x-x-6--6--6-----|
D|--8----8--8-8--8-8-8-8-8-8-8-|--4--4--4--x-x-6--6--6-----|
A|--6----6--6-6--6-6-6-6-6-6-6-|-----------x-x-4--4--4-----|
E|-----------------------------|---------------------------|


    Q    E  S E  S S S S S S S    E  E  E  S S E  E  E  E   
e|--6----6--6-6--6-6-6-6-6-6-6-|--6--6--6------------------|
B|--7----7--7-6--7-7-7-7-6-6-6-|--7--7--7--x-x-6--6--6-----|
G|--8----8--8-8--8-8-8-8-8-8-8-|--6--6--6--x-x-6--6--6-----|
D|--8----8--8-8--8-8-8-8-8-8-8-|--4--4--4--x-x-6--6--6-----|
A|--6----6--6-6--6-6-6-6-6-6-6-|-----------x-x-4--4--4-----|
E|-----------------------------|---------------------------|


    Q    E.  S S S E  E.  S    E  E  E  S S E  E  E  E   
e|--6----6---6-6-6-6--6---6-|--6--6--6------------------|
B|--6----7---6-6-7-7--6---6-|--7--7--7--x-x-6--6--6-----|
G|--8----8---8-8-8-8--8---8-|--6--6--6--x-x-6--6--6-----|
D|--8----8---8-8-8-8--8---8-|--4--4--4--x-x-6--6--6-----|
A|--6----6---6---6----6---6-|-----------x-x-4--4--4-----|
E|--------------------------|---------------------------|


    Q    E  S E  S S S S S S S    Q    E  S E  S S S S S S S  
e|--6----6--6-6--6-6-6-6-6-6-6-|--6----6--6-6--6-6-6-6-6-6-6-|
B|--6----6--6-6--6-6-6-6-6-6-6-|--6----6--6-6--6-6-6-6-6-6-6-|
G|--8----8--8-8--8-8-8-8-8-8-8-|--8----8--8-8--8-8-8-8-8-8-8-|
D|--8----8--8-8--8-8-8-8-8-8-8-|--8----8--8-8--8-8-8-8-8-8-8-|
A|--6----6--6-6--6-6-6-6-6-6-6-|--6----6--6-6--6-6-6-6-6-6-6-|
E|-----------------------------|-----------------------------|


    Q    E  S E  S S S S S S S    E  S S E  S E  E  S S S E     W                 
e|--6----6--6-6--6-6-6-6-6-6-6-|--6--6-6-6--6-6--6--6-6-6-6--|--6----------------|
B|--6----6--6-6--6-6-6-6-6-6-6-|--6--6-6-6--6-6--6--6-6-7-7--|--7----------------|
G|--8----8--8-8--8-8-8-8-8-8-8-|--8--8-8-8--8-8--8--8-8-8-8--|--8----------------|
D|--8----8--8-8--8-8-8-8-8-8-8-|--8--8-8-8--8-8--8--8-8-8-8--|--8----------------|
A|--6----6--6-6--6-6-6-6-6-6-6-|--6--6-6-6--6-6--6--6-6-6-6--|--6----------------|
E|-----------------------------|-----------------------------|-------------------|


    S S  S  S S S E  E  E  E     S S  S  S S S E  E  E  E   
e|----6-----------------------|----6-----------------------|
B|--9---(9)-------6-----6-----|--9---(9)-------6-----6-----|
G|----------6---6----8-----8--|----------6---6----8-----8--|
D|--6---------6------8-----8--|--6---------6------8-----8--|
A|----------------------------|----------------------------|
E|----------------------------|----------------------------|


    S S  S  S S S E  E  E  E     S S S S S S E  E  T  T  S E   
e|----6-----------------------|-------------------------------|
B|--9---(9)-------6-----6-----|--------------------6h-7p-6----|
G|----------6---6----8-----8--|--6---6-6---6---------------8--|
D|--6---------6------8-----8--|----6------------8-------------|
A|----------------------------|--4-------4---6----------------|
E|----------------------------|-------------------------------|


    S S S S S S E  S E  S E     S S  S  S S S E  E  E  E   
e|---------------------------|----6-----------------------|
B|---------------------------|--9---(9)-------6-----6-----|
G|--6---6-6---6------8--8----|----------6---6----8-----8--|
D|----6------------8------8--|--6---------6------8-----8--|
A|--4-------4---6------------|----------------------------|
E|---------------------------|----------------------------|


    S S  S  S S S E  E  E  E     S S  S  S S S E  E  E  E   
e|----6-----------------------|----6-----------------------|
B|--9---(9)-------6-----6-----|--9---(9)-------6-----6-----|
G|----------6---6----8-----8--|----------6---6----8-----8--|
D|--6---------6------8-----8--|--6---------6------8-----8--|
A|----------------------------|----------------------------|
E|----------------------------|----------------------------|


    S  S  S S S S E  E  S S E     S S S S S S E  E  T  T  S E   
e|-----------------------------|-------------------------------|
B|-----------------------------|--------------------6h-7p-6----|
G|--6--6----6---6-------8-8----|--6---6-6---6---------------8--|
D|----(6)-----6------8------8--|----6------------8-------------|
A|--4-------4-----6------------|--4-------4---6----------------|
E|-----------------------------|-------------------------------|


    S S  S  S S S E  E  E  E     S S  S  S S S E  E  E  E   
e|----6-----------------------|----6-----------------------|
B|--9---(9)-------6-----6-----|--9---(9)-------6-----6-----|
G|----------6---6----8-----8--|----------6---6----8-----8--|
D|--6---------6------8-----8--|--6---------6------8-----8--|
A|----------------------------|----------------------------|
E|----------------------------|----------------------------|


    S S  S  S S S E  E  E  E    
e|----6-----------------------||
B|--9---(9)-------6-----6-----||
G|----------6---6----8-----8--||
D|--6---------6------8-----8--||
A|----------------------------||
E|----------------------------||




Duration Legend
---------------
W - whole
H - half
Q - quarter
E - 8th
S - 16th
T - 32nd
X - 64th
. - note dotted
|-n-|  - n-tuplets


Tablature Legend
----------------
L - tied note
x - dead note
g - grace note
(n) - ghost note
> - accentuded note
NH - natural harmonic
AH - artificial harmonic
TH - tapped harmonic
SH - semi harmonic
PH - pitch harmonic
h - hammer on
p - pull off
b - bend
br - bendRelease
pb - preBend
pbr - preBendRelease
brb - bendReleaseBend
\n/ - tremolo bar dip
\n - tremolo bar dive
-/n - tremolo bar Release up
/n\ - tremolo bar inverted dip
/n - tremolo bar return
-\n - tremolo bar Release down
S - shift slide
s - legato slide
/ -  slide into from below or out of upwards
\ -  slide into from above or out of downwards
~ - vibrato
W - wide vibrato
tr - trill
TP - tremolo picking
T - tapping
S - slap
P - pop
< - fade in
^ - brush up
v - brush down

8. Torture me

9. Strip my mind
tabbed by A. Mazzei

[Intro]

Am    Em    F    C    
Dm    Am    C    G

Am    Em    F    C    
Dm    Am    C    G

[Verse 1]
Am    Em    F    C    
Dm    Am    C    G

Am    Em    F    C    
Dm    Am    C    G

[Bridge]
Am    C    Am

[Chorus]
Am    G    F
Am    G    F
Am    G    F

[Intro]

[Verse 2]

[Bridge]

[Chorus]

02:49
[Solo]

e|-5---|-5---|--------------------------------------------------|
B|-5---|-5---|--------------------------------------------------|
G|-7^9-|-7v9-|-5-5--5---5h7-7^9-9v7-5---5h7-7^9-9v7-5---7^9-9v7-|
D|-----|-----|--------7---------------7---------------7---------|
A|-----|-----|--------------------------------------------------|
E|-----|-----|--------------------------------------------------|

e|-12----15^17-17v15-12-15-----------------------------|
B|-15^17-------------------15^17-17v15-13-13--13----15-|
G|-----------------------------------------------14----|
D|-----------------------------------------------------|
A|-----------------------------------------------------|
E|-----------------------------------------------------|

e|-------------------------------------------------------|
B|-15^17-17v15-13----15-15^17-17v15-13----15-17-17-18-15-|
G|----------------14-------------------14----------------|
D|-------------------------------------------------------|
A|-------------------------------------------------------|
E|-------------------------------------------------------|

[Verse 3]

[Bridge]

[Chorus]

10. Espacially in Michigan
Tabbed by aNDr3s

Tuning:eBGADAE

Con mucho cariño para todos mis amigos!
Q viva Ecuador carajo!!!!

e|-----------------------------------------|
B|-----------------------------------------|
G|-----------------------------------------|
D|--9h11-11-11-11-11-11-11-11-11-----------|
A|-----------------------------------------|
E|-----------------------------------------|

e|-----------------------------------------|
B|-----------------------------------------|
G|-------------------------9h11-9----------|
D|--9h11-11-11-11-11-11-11-----------------|
A|-----------------------------------------|
E|-----------------------------------------|

e|-----------------------------------------|
B|-----------------------------------------|
G|-----------------------------------------|
D|--9h11-11-11-11-11-11-11-11-11-----------|
A|-----------------------------------------|
E|-----------------------------------------|

e|-----------------------------------------|
B|---------------------------7-7h9p7--7----|
G|-------------------------9--------9---9--|
D|--9h11-11-11-11-11-11-11-----------------|
A|-----------------------------------------|
E|-----------------------------------------|

0:10 (distorsion)                            0:29

e|--------------------------                 -----14----14--14--14----14----14----------|
B|----14-14----14-14----14--                 ---14----14------------14----14------------|
G|-11-------11-------11----- <--muchas veces -11----11----11--11--11----11--------------|
D|--------------------------                 -------------------------------------------|
A|--------------------------   despues-->    -------------------------------------------|
E|--------------------------                 -------------------------------------------|

(Clean)
0:56 cry me a future...

e|--------------------------------------------------------------------|
B|--14----14----14---12----12----12--14----14----14--15----15----15---|
G|----14----14-----------13----13--------14----14--------14----14-----|
D|------14----14--14---14----14--------16----16--------16----16-------|
A|--------------------------------------------------------------------|
E|--------------------------------------------------------------------|

1:06 lions and tigers...

e|---------------------------------------------------14----14----14----14----14-----|
B|--14----14----14---12----12----12--14----14----14------15----15----15----15----15-|
G|----14----14-----------13----13--------14----14------14----14----14----14----14---|
D|------14----14--14---14----14--------16----16-------------------------------------|
A|----------------------------------------------------------------------------------|
E|----------------------------------------------------------------------------------|

1:18

(aqui van voces de anthony distorcionadas y 2 guitarras, una puede ser Omar Rodriguez)

Gitarra 1

e|--------------------------|
B|--------------------14~---|
G|--------------------------|
D|-11~~~-11~~~-11~-~--------|
A|--------------------------|
E|--------------------------|

Gitarra 2

e|--------------------------|
B|----14-14----14-14----14--|
G|-11-------11-------11-----|
D|--------------------------|
A|--------------------------|
E|--------------------------|

1:33

Gitarra 1

e|----14~--14-19-14-19-14-19--|
B|-14~------------------------|
G|----------------------------|
D|----------------------------|
A|----------------------------|
E|----------------------------|

Gitarra 2

e|--------------------------|
B|----14-14----14-14----14--|
G|-11-------11-------11-----|
D|--------------------------|
A|--------------------------|
E|--------------------------|


1:45 (esta parte la tocan con una gitarra afinada diferente, pero yo la toco en una en E)

e|-------------------------|
B|-------------------------|
G|-------------------------|
D|--7--2--4-0---7-2-4-0----|
A|--7--2--4-0---7-2-4-0----|
E|--5--0--2-x---5-0-2-x----|

11. Warlocks

12. C'mon girl

13. Wet Sand
tabbed by MnW

G       D       Em      Bm

G
My shadow side, so amplified
D
keeps coming back dissatisfied
Em                       Bm
Elementary son, but it's so
G                            
My love affair with everywhere
D
Was innocent why do you care 
Em
Someone stop the car,
        Bm
Time to go 
G       D               Em      Bm
      Your the best I know 

My sunny side is up and died
I'm betting there when we collide
The universe will shift into a low 
the travesties that we have seen
treating me like Benzedrine
automatic laughter from a pro


Em        G              D       Em(chords played at high position)
My what a good day for a, walk outside 
Em                 G                                D                    Em
I'd like to get to know you a little better babe God knows that i really tried 
Em        G              D       Em
My what a good day for a take out bride 
Em                  G                   D       
I'd like to say we did it for the better of

I saw you there so unaware
Those humming birds all in your hair
Elementry so, but it's so
The disrepair of Norma Jean
could not compare to you're routine
Ballorama beauty going toe to toe

My what a good day just to let it slide
I'd like to say we did it for the better of


E                        C          E
I thought about it and I brought it out 
E                    C       E 
I'm motivated by the lack of doubt
E                        C       E 
I'm concentrated but i'm looking out 
E
Mother, the father, the daughter 

Right on the verge is one more dose
i'm travelling from coast to coast
my theory isn't perfect but it's close
i'm almost there, why should i care
my heart is hurting when i care
Someone opened up, let it show

My, what a good day for a walk outside
I like to think we did it for the better of

I thought about it and I brought it out 
I'm motivated by the lack of doubt
I concentrated but i'm looking out 
The Mother, the father, the daughter 

E              F#          G#m
Yeah you don't form in the wet sand 
E         F#      G#m 
You don't form at all 
E              F#          G#m     F#  E     Eb
Woah you don't form in the wet sand, I do, yeah

You don't form in the wet sand 
You don't form at all 
E              F#          G#m     F#  E     
Woah you don't form in the wet sand, I do, yeah!

E         F#       G#m
E         F#       G#m 
E         F#       G#m     F#      G#m

G#m       Ebm      Emaj7
G#m       Ebm      Emaj7
G#m       Ebm      Emaj7   Ebm     G#m

14. Hey
tabbed by Omer5omer5


e|-------|-------|-------|-------|-------|-------|-------|
B|-------|-------|-------|-------|-------|-------|-------|
G|-------|-------|-------|-------|-------|-------|-------|
D|-------|-------|-------|-------|-------|-------|-------|
A|-------|-------|-------|-------|-------|-------|-------|
E|-------|-------|-------|-------|-------|-------|-------|


    Q    Q    E  E  E   E      Q    Q     E    E    E    E    
e|--------------------------|--------------------------------|
B|---------------------(4)--|--L---------(4)--(4)--(3)--(4)--|
G|----------------------5---|--L----------5----5----3----5---|
D|----------------------5---|--L----------5----5----5----5---|
A|--------------------------|--------------------------------|
E|----------------------3---|--------------------------------|


    E   E    E    E    E    E    E    E      E   E    E    E    E    Q     E   
e|----------------------------------------|--------------------------------3--|
B|-----(3)--(4)--(3)--(4)--(4)--(3)--(4)--|-----(3)--(4)--(3)--(4)--(4)----4--|
G|------3----5----3----5----5----3----5---|------3----5----3----5----5-----5--|
D|------5----5----5----5----5----5----5---|------5----5----5----5----5--------|
A|----------------------------------------|-----------------------------------|
E|----------------------------------------|-----------------------------------|


    E  E  E  E  E   E   E    E     Q    Q     E    E    E    E    
e|------------------------------|--------------------------------|
B|-----4-----3-----(3)-------4--|--L---------(4)--(4)--(3)--(4)--|
G|-----5-----3------3------3g5--|--L----------5----5----3----5---|
D|------------------5------3g5--|--L----------5----5----5----5---|
A|------------------------------|--------------------------------|
E|------------------------------|--------------------------------|


    E   E    E    E    E    E    E    E      E   E    E    E    E    Q     E   
e|----------------------------------------|--------------------------------3--|
B|-----(3)--(4)--(3)--(4)--(4)--(3)--(4)--|-----(3)--(4)--(3)--(4)--(4)----4--|
G|------3----5----3----5----5----3----5---|------3----5----3----5----5-----5--|
D|------5----5----5----5----5----5----5---|------5----5----5----5----5--------|
A|----------------------------------------|-----------------------------------|
E|----------------------------------------|-----------------------------------|


    E  E  E  E  E   E   E    E     H        H         
e|-----4-----3------------------|--------------------|
B|-----x-----4-----(3)-------4--|--L-----------------|
G|-----5-----5------3------3g5--|--L-----------------|
D|------------------5------3g5--|--L-----------------|
A|------------------------------|--------------------|
E|------------------------------|--------------------|


    H         E    E    E    E      E   E    E    E    E    Q     E   
e|-------------------------------|--------------------------------3--|
B|-----------(4)--(4)--(3)--(4)--|-----(3)--(4)--(3)--(4)--(4)----4--|
G|------------5----5----3----5---|------3----5----3----5----5-----5--|
D|------------5----5----5----5---|------5----5----5----5----5--------|
A|-------------------------------|-----------------------------------|
E|-------------------------------|-----------------------------------|


    E  E  E  E  E   E   E    E     H        H         
e|------------------------------|--------------------|
B|-----4-----3-----(3)-------4--|--L-----------------|
G|-----5-----3------3------3g5--|--L-----------------|
D|------------------5--------5--|--L-----------------|
A|------------------------------|--------------------|
E|------------------------------|--------------------|


    H         E    E    E    E      E   E    E    E    E    Q     E   
e|-------------------------------|--------------------------------3--|
B|-----------(4)--(4)--(3)--(4)--|-----(3)--(4)--(3)--(4)--(4)----4--|
G|------------5----5----3----5---|------3----5----3----5----5-----5--|
D|------------5----5----5----5---|------5----5----5----5----5--------|
A|-------------------------------|-----------------------------------|
E|-------------------------------|-----------------------------------|


    E  E  E  E  E   E   E    E     Q    Q     E    E    E    E    
e|-----4-----3------------------|--------------------------------|
B|-----x-----4-----(3)-------4--|--L---------(4)--(4)--(3)--(4)--|
G|-----5-----5------3------3g5--|--L----------5----5----3----5---|
D|------------------5--------5--|--L----------5----5----5----5---|
A|------------------------------|--------------------------------|
E|------------------------------|--------------------------------|


    E   E    E    E    E    E    E    E      E   E    E    E    E    Q     E   
e|----------------------------------------|--------------------------------3--|
B|-----(3)--(4)--(3)--(4)--(4)--(3)--(4)--|-----(3)--(4)--(3)--(4)--(4)----4--|
G|------3----5----3----5----5----3----5---|------3----5----3----5----5-----5--|
D|------5----5----5----5----5----5----5---|------5----5----5----5----5--------|
A|----------------------------------------|-----------------------------------|
E|----------------------------------------|-----------------------------------|


    E  E  E  E  E   E   E    E     Q    Q     E    E    E    E    
e|------------------------------|--------------------------------|
B|-----4-----3-----(3)-------4--|--L---------(4)--(4)--(3)--(4)--|
G|-----5-----3------3------3g5--|--L----------5----5----3----5---|
D|------------------5--------5--|--L----------5----5----5----5---|
A|------------------------------|--------------------------------|
E|------------------------------|--------------------------------|


    E   E    E    E    E    E    E    E      E   E    E    E    E    Q     E   
e|----------------------------------------|--------------------------------3--|
B|-----(3)--(4)--(3)--(4)--(4)--(3)--(4)--|-----(3)--(4)--(3)--(4)--(4)----4--|
G|------3----5----3----5----5----3----5---|------3----5----3----5----5-----5--|
D|------5----5----5----5----5----5----5---|------5----5----5----5----5--------|
A|----------------------------------------|-----------------------------------|
E|----------------------------------------|-----------------------------------|


    E  E  E  E  E   E   E    E     Q    Q     E    E    E    E    
e|-----4-----3------------------|--------------------------------|
B|-----x-----4-----(3)-------4--|--L---------(4)--(4)--(3)--(4)--|
G|-----5-----5------3------3g5--|--L----------5----5----3----5---|
D|------------------5--------5--|--L----------5----5----5----5---|
A|------------------------------|--------------------------------|
E|------------------------------|--------------------------------|


    E   E    E    E    E    E    E    E      E   E    E    E    E    Q     E   
e|----------------------------------------|--------------------------------3--|
B|-----(3)--(4)--(3)--(4)--(4)--(3)--(4)--|-----(3)--(4)--(3)--(4)--(4)----4--|
G|------3----5----3----5----5----3----5---|------3----5----3----5----5-----5--|
D|------5----5----5----5----5----5----5---|------5----5----5----5----5--------|
A|----------------------------------------|-----------------------------------|
E|----------------------------------------|-----------------------------------|


    E  E  E  E  E   E   E    E     Q    Q     E    E    E    E    
e|------------------------------|--------------------------------|
B|-----4-----3-----(3)-------4--|--L---------(4)--(4)--(3)--(4)--|
G|-----5-----3------3------3g5--|--L----------5----5----3----5---|
D|------------------5--------5--|--L----------5----5----5----5---|
A|------------------------------|--------------------------------|
E|------------------------------|--------------------------------|


    E   E    E    E    E    E    E    E      E   E    E    E    E    Q     E   
e|----------------------------------------|--------------------------------3--|
B|-----(3)--(4)--(3)--(4)--(4)--(3)--(4)--|-----(3)--(4)--(3)--(4)--(4)----4--|
G|------3----5----3----5----5----3----5---|------3----5----3----5----5-----5--|
D|------5----5----5----5----5----5----5---|------5----5----5----5----5--------|
A|----------------------------------------|-----------------------------------|
E|----------------------------------------|-----------------------------------|


    E  E  E  E  E  E  Q       H         E   Q      E      
e|-----4-----6-----4--3----|-----------------------------|
B|-----x-----4-----x--4----|-----------------------------|
G|-----5-----5-----3--5----|--8~-----------10b----10pbr--|
D|-----------------5--5----|-----------------------------|
A|-------------------------|-----------------------------|
E|-------------------------|-----------------------------|


    H         E   Q     E      H        E   Q      E    
e|--------------------------|--------------------------|
B|---------------11-----8~--|--L-----------------------|
G|--L~-----------------10b--|--------------10br----8~--|
D|--------------------------|--------------------------|
A|--------------------------|--------------------------|
E|--------------------------|--------------------------|


    Q     Q      E  E  E  E      H         E   Q      E      
e|----------------------------|-----------------------------|
B|----------------------------|-----------------------------|
G|--L----10br----L--8--7--8~--|--L~-----------10b----10pbr--|
D|----------------------------|-----------------------------|
A|----------------------------|-----------------------------|
E|----------------------------|-----------------------------|


    H         E   E  E    S   S     H        E   Q      E    
e|-------------------------------|--------------------------|
B|---------------11--8~--11S-13~-|--L-----------------------|
G|--L~---------------------------|--------------10b~----8~--|
D|-------------------------------|--------------------------|
A|-------------------------------|--------------------------|
E|-------------------------------|--------------------------|


    Q     Q      E   Q       E      H         E   Q      E      
e|--------------11---------------|-----------------------------|
B|-------------------------------|-----------------------------|
G|--L----10b--------10pbr----8~--|--L~-----------10b----10pbr--|
D|-------------------------------|-----------------------------|
A|-------------------------------|-----------------------------|
E|-------------------------------|-----------------------------|


    H         E   Q     E      H        E   Q      E    
e|--------------------------|--------------------------|
B|---------------11-----8~--|--L-----------------------|
G|--L~-----------------10b--|--------------10br----8~--|
D|--------------------------|--------------------------|
A|--------------------------|--------------------------|
E|--------------------------|--------------------------|


    Q     Q      E  E  E  E      H         E   Q      E      
e|----------------------------|-----------------------------|
B|----------------------------|-----------------------------|
G|--L----10br----L--8--7--8~--|--L~-----------10b----10pbr--|
D|----------------------------|-----------------------------|
A|----------------------------|-----------------------------|
E|----------------------------|-----------------------------|


    H         E  E  E  S   S     H        E  Q    E   
e|---------------------------|-----------------------|
B|---------------------------|---L-------------------|
G|--L~-----------8-----------|-----------------------|
D|------------------8--8S-10-|---L-----------8-------|
A|---------------------------|--------------------8--|
E|---------------------------|-----------------------|


    E  E  E    E  E   E  Q       H          E    E    E    E    
e|----------------------------|--------------------------------|
B|----------------------------|------------(4)--(4)--(3)--(4)--|
G|--L-------------8-----------|-------------5----5----3----5---|
D|----------------------------|-------------5----5----5----5---|
A|--L--6--8S--10-----10--8----|--6~----------------------------|
E|----------------------------|--------------------------------|


    E   E    E    E    E    E    E    E      E   E    E    E    E    Q     E   
e|----------------------------------------|--------------------------------3--|
B|-----(3)--(4)--(3)--(4)--(4)--(3)--(4)--|-----(3)--(4)--(3)--(4)--(4)----4--|
G|------3----5----3----5----5----3----5---|------3----5----3----5----5-----5--|
D|------5----5----5----5----5----5----5---|------5----5----5----5----5--------|
A|----------------------------------------|-----------------------------------|
E|----------------------------------------|-----------------------------------|


    E  E  E  E  E   E   E    E     Q    Q     E    E    E    E    
e|------------------------------|--------------------------------|
B|-----4-----3-----(3)-------4--|--L---------(4)--(4)--(3)--(4)--|
G|-----5-----3------3------3g5--|--L----------5----5----3----5---|
D|------------------5--------5--|--L----------5----5----5----5---|
A|------------------------------|--------------------------------|
E|------------------------------|--------------------------------|


    E   E    E    E    E    E    E    E      E   E    E    E    E    Q     E   
e|----------------------------------------|--------------------------------3--|
B|-----(3)--(4)--(3)--(4)--(4)--(3)--(4)--|-----(3)--(4)--(3)--(4)--(4)----4--|
G|------3----5----3----5----5----3----5---|------3----5----3----5----5-----5--|
D|------5----5----5----5----5----5----5---|------5----5----5----5----5--------|
A|----------------------------------------|-----------------------------------|
E|----------------------------------------|-----------------------------------|


    E  E  E  E  E   E   E    E     H        H         
e|-----4-----3------------------|--------------------|
B|-----x-----4-----(3)-------4--|--L-----------------|
G|-----5-----5------3------3g5--|--L-----------------|
D|------------------5--------5--|--L-----------------|
A|------------------------------|--------------------|
E|------------------------------|--------------------|


    H         E    E    E    E      E   E    E    E    E    Q     E   
e|-------------------------------|--------------------------------3--|
B|-----------(4)--(4)--(3)--(4)--|-----(3)--(4)--(3)--(4)--(4)----4--|
G|------------5----5----3----5---|------3----5----3----5----5-----5--|
D|------------5----5----5----5---|------5----5----5----5----5--------|
A|-------------------------------|-----------------------------------|
E|-------------------------------|-----------------------------------|


    E  E  E  E  E   E   E    E     H        H         
e|------------------------------|--------------------|
B|-----4-----3-----(3)-------4--|--L-----------------|
G|-----5-----3------3------3g5--|--L-----------------|
D|------------------5--------5--|--L-----------------|
A|------------------------------|--------------------|
E|------------------------------|--------------------|


    H         E    E    E    E      E   E    E    E    E    Q     E   
e|-------------------------------|--------------------------------3--|
B|-----------(4)--(4)--(3)--(4)--|-----(3)--(4)--(3)--(4)--(4)----4--|
G|------------5----5----3----5---|------3----5----3----5----5-----5--|
D|------------5----5----5----5---|------5----5----5----5----5--------|
A|-------------------------------|-----------------------------------|
E|-------------------------------|-----------------------------------|


    E  E  E  E  E   E   E    E     Q    Q     E    E    E    E    
e|-----4-----3------------------|--------------------------------|
B|-----x-----4-----(3)-------4--|--L---------(4)--(4)--(3)--(4)--|
G|-----5-----5------3------3g5--|--L----------5----5----3----5---|
D|------------------5--------5--|--L----------5----5----5----5---|
A|------------------------------|--------------------------------|
E|------------------------------|--------------------------------|


    E   E    E    E    E    E    E    E      E   E    E    E    E    Q     E   
e|----------------------------------------|--------------------------------3--|
B|-----(3)--(4)--(3)--(4)--(4)--(3)--(4)--|-----(3)--(4)--(3)--(4)--(4)----4--|
G|------3----5----3----5----5----3----5---|------3----5----3----5----5-----5--|
D|------5----5----5----5----5----5----5---|------5----5----5----5----5--------|
A|----------------------------------------|-----------------------------------|
E|----------------------------------------|-----------------------------------|


    E  E  E  E  E   E   E    E     Q    Q     E    E    E    E    
e|------------------------------|--------------------------------|
B|-----4-----3-----(3)-------4--|--L---------(4)--(4)--(3)--(4)--|
G|-----5-----3------3------3g5--|--L----------5----5----3----5---|
D|------------------5--------5--|--L----------5----5----5----5---|
A|------------------------------|--------------------------------|
E|------------------------------|--------------------------------|


    E   E    E    E    E    E    E    E      E   E    E    E    E    Q     E   
e|----------------------------------------|--------------------------------3--|
B|-----(3)--(4)--(3)--(4)--(4)--(3)--(4)--|-----(3)--(4)--(3)--(4)--(4)----4--|
G|------3----5----3----5----5----3----5---|------3----5----3----5----5-----5--|
D|------5----5----5----5----5----5----5---|------5----5----5----5----5--------|
A|----------------------------------------|-----------------------------------|
E|----------------------------------------|-----------------------------------|


    E  E  E  E  E   E   E    E     Q    Q     E    E    E    E    
e|-----4-----3------------------|--------------------------------|
B|-----x-----4-----(3)-------4--|--L---------(4)--(4)--(3)--(4)--|
G|-----5-----5------3------3g5--|--L----------5----5----3----5---|
D|------------------5--------5--|--L----------5----5----5----5---|
A|------------------------------|--------------------------------|
E|------------------------------|--------------------------------|


    E   E    E    E    E    E    E    E      E   E    E    E    E    Q     E   
e|----------------------------------------|--------------------------------3--|
B|-----(3)--(4)--(3)--(4)--(4)--(3)--(4)--|-----(3)--(4)--(3)--(4)--(4)----4--|
G|------3----5----3----5----5----3----5---|------3----5----3----5----5-----5--|
D|------5----5----5----5----5----5----5---|------5----5----5----5----5--------|
A|----------------------------------------|-----------------------------------|
E|----------------------------------------|-----------------------------------|


    E  E  E  E  E   E   E    E     Q    Q     E    E    E    E    
e|------------------------------|--------------------------------|
B|-----4-----3-----(3)-------4--|--L---------(4)--(4)--(3)--(4)--|
G|-----5-----3------3------3g5--|--L----------5----5----3----5---|
D|------------------5--------5--|--L----------5----5----5----5---|
A|------------------------------|--------------------------------|
E|------------------------------|--------------------------------|


    E   E    E    E    E    E    E    E      E   E    E    E    E    Q     E   
e|----------------------------------------|--------------------------------3--|
B|-----(3)--(4)--(3)--(4)--(4)--(3)--(4)--|-----(3)--(4)--(3)--(4)--(4)----4--|
G|------3----5----3----5----5----3----5---|------3----5----3----5----5-----5--|
D|------5----5----5----5----5----5----5---|------5----5----5----5----5--------|
A|----------------------------------------|-----------------------------------|
E|----------------------------------------|-----------------------------------|


    E  E  E  E  E  E  Q       H         E   Q      E      
e|-----4-----6-----4--3----|-----------------------------|
B|-----x-----4-----x--4----|-----------------------------|
G|-----5-----5-----3--5----|--8~-----------10b----10pbr--|
D|-----------------5--5----|-----------------------------|
A|-------------------------|-----------------------------|
E|-------------------------|-----------------------------|


    H         E   Q     E      H        E   Q      E   
e|--------------------------|-------------------------|
B|---------------11-----8~--|--L----------------------|
G|--L~-----------------10b--|--L-----------10br----8--|
D|--------------------------|-------------------------|
A|--------------------------|-------------------------|
E|--------------------------|-------------------------|


    Q     Q      E  E  E  E      H         E   Q      E      
e|----------------------------|-----------------------------|
B|--L-------------------------|-----------------------------|
G|--L----10br----L--8--7--8~--|--L~-----------10b----10pbr--|
D|--L-------------------------|-----------------------------|
A|----------------------------|-----------------------------|
E|----------------------------|-----------------------------|


    H         E   E  E    S   S     H        E   Q      E    
e|-------------------------------|--------------------------|
B|---------------11--8~--11S-13~-|--L-----------------------|
G|--L~---------------------------|--------------10b~----8~--|
D|-------------------------------|--------------------------|
A|-------------------------------|--------------------------|
E|-------------------------------|--------------------------|


    Q     Q      E   Q       E        H        E   Q      E      
e|--------------11-----------------|----------------------------|
B|---------------------------------|----------------------------|
G|--L----10b--------10pbr----8br~--|--L-----------10b----10pbr--|
D|---------------------------------|----------------------------|
A|---------------------------------|----------------------------|
E|---------------------------------|----------------------------|


    H         E   Q     E      H        E   Q      E    
e|--------------------------|--------------------------|
B|---------------11-----8~--|--L-----------------------|
G|--L~-----------------10b--|--L-----------10br----8~--|
D|--------------------------|--------------------------|
A|--------------------------|--------------------------|
E|--------------------------|--------------------------|


    S                                                        
    Q     Q      E  E  E  E      H         E   Q      E      
e|----------------------------|-----------------------------|
B|----------------------------|-----------------------------|
G|--L----10br----L--8--7--8~--|--L~-----------10b----10pbr--|
D|----------------------------|-----------------------------|
A|----------------------------|-----------------------------|
E|----------------------------|-----------------------------|


    H         E   E  E    S   S     H        E   E   Q      
e|-------------------------------|-------------------------|
B|---------------11--8~--11S-13~-|--L-----------11---------|
G|--L~---------------------------|------------------10b----|
D|-------------------------------|-------------------------|
A|-------------------------------|-------------------------|
E|-------------------------------|-------------------------|


    E   E   E   S  S  E   S  S  E  E     H         E   Q      E      
e|------------------------------------|-----------------------------|
B|------------------------------------|-----------------------------|
G|--8--10--10--10p-8-----10p-8-----8--|--L~-----------10b----10pbr--|
D|-------------------10--------10-----|-----------------------------|
A|------------------------------------|-----------------------------|
E|------------------------------------|-----------------------------|


    H         E   Q     E      H        E   Q      E    
e|--------------------------|--------------------------|
B|---------------11-----8~--|--L-----------------------|
G|--L~-----------------10b--|--L-----------10br----8~--|
D|--------------------------|--------------------------|
A|--------------------------|--------------------------|
E|--------------------------|--------------------------|


    Q     Q      E  E  E  E      H         E   Q      E      
e|----------------------------|-----------------------------|
B|----------------------------|-----------------------------|
G|--L----10br----L--8--7--8~--|--L~-----------10b----10pbr--|
D|----------------------------|-----------------------------|
A|----------------------------|-----------------------------|
E|----------------------------|-----------------------------|


    H         E  E  E  S   S     H        E   E   E   E   
e|---------------------------|------------------------8--|
B|---------------------------|---L--------------------8--|
G|--L~-----------8-----------|------------------------8--|
D|------------------8--8S-10-|---L-----------10S--8--10--|
A|---------------------------|---------------------------|
E|---------------------------|---------------------------|


    E   E   E   E   E   E   E   E      Q     E  Q     Q    E   
e|--L---8---8---8---8---8---8---8--|---8----------------------|
B|--L---8---8---8---8---8---8---8--|---9--------9-------------|
G|--L---8---8---8---8---8---8---8--|--10-------------10-------|
D|--L--10--10--10--10--10--10--10--|--10----10----------------|
A|---------------------------------|--------------------------|
E|--L------------------------------|--------------------------|


    E   Q    Q    Q    E     Q    E  Q    Q    E     E  Q     Q    E  Q     
e|----------------8-------|-----------------------|------------------------|
B|--9--11----9------------|--8--------------------|--8--9----11----9--8----|
G|------------------------|--8-------8------------|------------------------|
D|------------------------|--8----8-------8-------|------------------------|
A|------------------------|-----------------------|------------------------|
E|------------------------|-----------------------|------------------------|


    Q    E  Q    Q    E     E  Q    Q    E  Q        Q     E   Q    Q     E   
e|-----------------------|-----------------------|---------------------------|
B|--6--------------------|--6--8----9----8--6----|---------------------------|
G|--6-------6------------|-----------------------|---8----10---8----------8--|
D|--6----6-------6-------|-----------------------|---8-----8---8----------8--|
A|-----------------------|-----------------------|--10----10--10---------10--|
E|-----------------------|-----------------------|---------------------------|


    E   E  E  E  E   E  Q        Q     E  Q     Q    E     E   Q    Q    Q    E   
e|---------------------------|---8----------------------|----------------8-------|
B|------------8--------------|---9--------9-------------|--9--11----9------------|
G|-----10-----8-----10-------|--10-------------10-------|------------------------|
D|------8-----8------8-------|--10----10----------------|------------------------|
A|-----10-----------10-------|--------------------------|------------------------|
E|---------------------------|--------------------------|------------------------|


    Q    E  Q    Q    E     E  Q     Q    E  Q       Q    E  Q    Q    E   
e|-----------------------|------------------------|-----------------------|
B|--8--------------------|--8--9----11----9--8----|--6--------------------|
G|--8-------8------------|------------------------|--6-------6----6-------|
D|--8----8-------8-------|------------------------|--6----6---------------|
A|-----------------------|------------------------|-----------------------|
E|-----------------------|------------------------|-----------------------|


    E  Q    Q    E  Q        Q     E   Q    Q     E   
e|-----------------------|---------------------------|
B|--6--8----9----8--6----|---------------------------|
G|-----------------------|---8----10---8----------8--|
D|-----------------------|---8-----8---8----------8--|
A|-----------------------|--10----10--10---------10--|
E|-----------------------|---------------------------|


    E   Q     Q     E   E  E      Q     E   Q    Q     E   
e|----------------------------|---------------------------|
B|----------------------------|---------------------------|
G|------8-----8-----8---8-----|--10----10--10---------10--|
D|------8-----8-----8---8-----|---8-----8---8----------8--|
A|-----10----10----10--10-----|--10----10--10---------10--|
E|----------------------------|---------------------------|


    E   Q     E   E   E   E   E      H         S E   S E   E    
e|-------------------------------|---8---------L-8-------------|
B|-------------------------------|--11b--------L----11-8--11b--|
G|--L--10----10--10--10--10--10--|-----------------------------|
D|--L---8-----8---8---8---8---8--|-----------------------------|
A|--L--10----10--10--10--10--10--|-----------------------------|
E|-------------------------------|-----------------------------|


    E  E   S E   Q      E  S  S S     E    Q     S E   S  S  S  E   E    
e|-----8-------------------8------|-------------------------------------|
B|--L-----11-8--11b----11----11-8-|--11b--11----11-----------------11b--|
G|--------------------------------|-------------------10-12-10-12-------|
D|--------------------------------|-------------------------------------|
A|--------------------------------|-------------------------------------|
E|--------------------------------|-------------------------------------|


     Q     S  S  S  E    E   S  S  E   S     Q     E    S E   S E   S   S E   
e|---------------------------------------|-----------------------------------|
B|--11-------------11b--11---------------|-----------------------------------|
G|--------12-10-12----------12-10-12~--L-|---L----10br--8----10----10br-8----|
D|---------------------------------------|-----------------------------------|
A|---------------------------------------|-----------------------------------|
E|---------------------------------------|-----------------------------------|


     E  S  E    E  E   E  E   E    S     E  S  E    E  E   E   E    S  E    
e|-----------------------------------|-------------------------------------|
B|-----------------------------------|-------------------------------------|
G|--10----10br--8-----10-----10br--8-|--10----10br--8-----10--10br--8-10~--|
D|-----------------------------------|-------------------------------------|
A|-----------------------------------|-------------------------------------|
E|-----------------------------------|-------------------------------------|


    S  S S  S  S S  S S  S E   E    S S  S    E   E    S S  Q    E   E   S S  
e|-----------------------------------------|---------------------------------|
B|-----------------------------------------|---------------------------------|
G|--8---------10-8---------8b--8~----------|--8b--8~-------------8b--8-------|
D|----10-8-10------10-8-10---------10-8-10-|----------10-8-10-----------10-8-|
A|-----------------------------------------|---------------------------------|
E|-----------------------------------------|---------------------------------|


     E  Q     E  S   S  E   E   T   S T     Q      E   E   E   S   E  E  S  
e|--------------------------------------|----------------------------------|
B|-------------------------11--13S-16-L-|--13~----11--13--13--13p-11-------|
G|------8b----8--8S-10-12---------------|----------------------------------|
D|--10----------------------------------|----------------------------------|
A|--------------------------------------|----------------------------------|
E|--------------------------------------|----------------------------------|


     Q     E   Q       E     Q          Q       Q       E     Q       E     
e|--13b----L--13pb----13pb--13pb----|--13pb----13pb----13pb--13pb----13pb--|
B|----------------------------------|--------------------------------------|
G|----------------------------------|--------------------------------------|
D|----------------------------------|--------------------------------------|
A|----------------------------------|--------------------------------------|
E|----------------------------------|--------------------------------------|


     Q       Q       S  E   Q     S     Q       S  S  E   Q     Q     
e|--13pb----13pb----13-11--13----15-|--11br--------------------------|
B|----------------------------------|----------13-11-13--13~---------|
G|----------------------------------|--------------------------------|
D|----------------------------------|--------------------------------|
A|----------------------------------|--------------------------------|
E|----------------------------------|--------------------------------|


     E    S S  S S  S S  S E  E   E  S     H          E    E    E    E    
e|--------------------------------------|--------------------------------|
B|--------------------------------------|------------(4)--(4)--(3)--(4)--|
G|--10br--8---10---10---10-8--8--10--8~-|--L~---------5----5----3----5---|
D|--------------------------------------|-------------5----5----5----5---|
A|--------------------------------------|--------------------------------|
E|--------------------------------------|--------------------------------|


    E   E    E    E    E    E    E    E      E   E    E    E    E    Q     E   
e|----------------------------------------|--------------------------------3--|
B|-----(3)--(4)--(3)--(4)--(4)--(3)--(4)--|-----(3)--(4)--(3)--(4)--(4)----4--|
G|------3----5----3----5----5----3----5---|------3----5----3----5----5-----5--|
D|------5----5----5----5----5----5----5---|------5----5----5----5----5--------|
A|----------------------------------------|-----------------------------------|
E|----------------------------------------|-----------------------------------|


    E  E  E  E  E   E   E    E     Q    Q     E    E    E    E    
e|------------------------------|--------------------------------|
B|-----4-----3-----(3)-------4--|--L---------(4)--(4)--(3)--(4)--|
G|-----5-----3------3------3g5--|--L----------5----5----3----5---|
D|------------------5--------5--|--L----------5----5----5----5---|
A|------------------------------|--------------------------------|
E|------------------------------|--------------------------------|


    E   E    E    E    E    E    E    E      E   E    E    E    E    Q     E   
e|----------------------------------------|--------------------------------3--|
B|-----(3)--(4)--(3)--(4)--(4)--(3)--(4)--|-----(3)--(4)--(3)--(4)--(4)----4--|
G|------3----5----3----5----5----3----5---|------3----5----3----5----5-----5--|
D|------5----5----5----5----5----5----5---|------5----5----5----5----5--------|
A|----------------------------------------|-----------------------------------|
E|----------------------------------------|-----------------------------------|


    E  E  E  E  E   E   E    E     H         E    E    E   E   
e|-----4-----3------------------|-----------------------------|
B|-----x-----4-----(3)-------4--|--L--------(4)--(4)--(3)-----|
G|-----5-----5------3------3g5--|--L---------5----5----3---5--|
D|------------------5--------5--|--L---------5----5----5---5--|
A|------------------------------|-----------------------------|
E|------------------------------|-----------------------------|


    E   E    E    E    E    E    E    E      E   E    E    E    E    Q     E   
e|----------------------------------------|--------------------------------3--|
B|-----(3)--(4)--(3)--(4)--(4)--(3)--(4)--|-----(3)--(4)--(3)--(4)--(4)----4--|
G|------3----5----3----5----5----3----5---|------3----5----3----5----5-----5--|
D|------5----5----5----5----5----5----5---|------5----5----5----5----5--------|
A|----------------------------------------|-----------------------------------|
E|----------------------------------------|-----------------------------------|


    E  E  E  E  E   E   E    E     Q    Q     E    E    E    E    
e|------------------------------|--------------------------------|
B|-----4-----3-----(3)-------4--|--L---------(4)--(4)--(3)--(4)--|
G|-----5-----3------3------3g5--|--L----------5----5----3----5---|
D|------------------5--------5--|--L----------5----5----5----5---|
A|------------------------------|--------------------------------|
E|------------------------------|--------------------------------|


    E   E    E    E    E    E    E    E      E   E    E    E    E    Q     E   
e|----------------------------------------|--------------------------------3--|
B|-----(3)--(4)--(3)--(4)--(4)--(3)--(4)--|-----(3)--(4)--(3)--(4)--(4)----4--|
G|------3----5----3----5----5----3----5---|------3----5----3----5----5-----5--|
D|------5----5----5----5----5----5----5---|------5----5----5----5----5--------|
A|----------------------------------------|-----------------------------------|
E|----------------------------------------|-----------------------------------|


    E  E  E  E  E   E   E    E     H         E    E    E    E    
e|-----4-----3------------------|-------------------------------|
B|-----x-----4-----(3)-------4--|--L--------(4)--(4)--(3)--(4)--|
G|-----5-----5------3------3g5--|--L---------5----5----3----5---|
D|------------------5--------5--|--L---------5----5----5----5---|
A|------------------------------|-------------------------------|
E|------------------------------|-------------------------------|


    E   E    E    E    E    E    E    E      E   E    E    E    E    Q     E   
e|----------------------------------------|--------------------------------3--|
B|-----(3)--(4)--(3)--(4)--(4)--(3)--(4)--|-----(3)--(4)--(3)--(4)--(4)----4--|
G|------3----5----3----5----5----3----5---|------3----5----3----5----5-----5--|
D|------5----5----5----5----5----5----5---|------5----5----5----5----5--------|
A|----------------------------------------|-----------------------------------|
E|----------------------------------------|-----------------------------------|


    E  E  E  E  E   E   E    E     Q    Q     E    E    E    E    
e|------------------------------|--------------------------------|
B|-----4-----3-----(3)-------4--|--L---------(4)--(4)--(3)--(4)--|
G|-----5-----3------3------3g5--|--L----------5----5----3----5---|
D|------------------5--------5--|--L----------5----5----5----5---|
A|------------------------------|--------------------------------|
E|------------------------------|--------------------------------|


    E   E    E    E    E    E    E    E      E   E    E    E    E    Q     E   
e|----------------------------------------|--------------------------------3--|
B|-----(3)--(4)--(3)--(4)--(4)--(3)--(4)--|-----(3)--(4)--(3)--(4)--(4)----4--|
G|------3----5----3----5----5----3----5---|------3----5----3----5----5-----5--|
D|------5----5----5----5----5----5----5---|------5----5----5----5----5--------|
A|----------------------------------------|-----------------------------------|
E|----------------------------------------|-----------------------------------|


    E  E  E  E  E   E   E    E     W                  
e|-----4-----3------------------|-------------------||
B|-----x-----4-----(3)-------4--|--L----------------||
G|-----5-----5------3------3g5--|--L----------------||
D|------------------5--------5--|--L----------------||
A|------------------------------|-------------------||
E|------------------------------|-------------------||




Duration Legend
---------------
W - whole
H - half
Q - quarter
E - 8th
S - 16th
T - 32nd
X - 64th
. - note dotted
|-n-|  - n-tuplets

************************************

| x    Dead note
| h    Hammer-on
| p    Pull-off
| \    Slide down
| /    Slide up
| (n)  Ghost note
| ~    Vibrato
| b    Bend
| r    Release
| *    Natural harmonic
| g    Grace note
| pbr  Pre-bend release
| br   Bend release
| pb   Pre-bend

************************************
Suggest correction
comments
print report bad tab
32 comments total. Showing first comments.
0 reply
thegreatindoors 41 May 18, 2006 02:13 PM

slow cheeta solo is missing

0 reply
MiniMusicMasta 120 May 18, 2006 02:47 PM

where is torture me?

0 reply
595Metallica595 10 May 19, 2006 11:13 AM

good effort even some things are left out and wrong. must have taken forever

guest
You may want to rate the tab now too:
select rating
Wanna post a correction for this tab? Suggest correction