Oops, an error
Loading. Please wait.

Stadium Arcadium intro tab

version 1
version 1
21,188 views 6 this week
2 commentsread comments
1 2 3 4 5
x 5
add to favorites
×
Save as Personal and add changes to this tab that will be seen only by you. Learn more ›
×
You can save this tab as Personal to edit and correct it or add notes. All changes will be seen only by you. Learn more »
launch autoscroll
font size
0
reset
how to read this tab
guitar tuner
edit
Autoscroll
slow
fast
+/-
esc
set tempo
stop
Author
Difficulty
Intro:

|------------------------------------------------------------|
|-------------------------------------------------2----------|  Repeat x 2
|------------------2-----------2---------2------2------------|
|-------------4------------4----------2-------2--------------|
|--------4-------------4-----------0-------------------------|
|---2--------------------------------------------------------|


 A     E
-------0--|
-2-----0--|
-2-----1--|
-2-----2--|
-0-----2--|
-------0--|

Verse (Main Riff):
|------------------------------------------------------------|
|-------------------------------------------------2----------|  Repeat x 2
|------------------2-----------2---------2------2------------|
|-------------4------------4----------2-------2--------------|
|--------4-------------4-----------0-------------------------|
|---2--------------------------------------------------------|


 A     E
-------0--|
-2-----0--|
-2-----1--|
-2-----2--|
-0-----2--|
-------0--|

|--------------------------------------------------------------|
|-------------------------------------------------2----2h3-2---|
|------------------2-----------2---------2------2------------2-|
|-------------4------------4----------2-------2----------------|
|--------4-------------4-----------0---------------------------|
|---2----------------------------------------------------------|

|------------------------------------------------------------|
|-------------------------------------------------2----------|
|------------------2-----------2---------2------2------------|
|-------------4------------4----------2-------2--------------|
|--------4-------------4-----------0-------------------------|
|---2--------------------------------------------------------|

 A     E
-------0--|
-2-----0--|
-2-----1--|
-2-----2--|
-0-----2--|
-------0--|

Chorus:

     Bm
The Stadium Arcadium,
     D                     D
A mirror to the Moon,(A mirror to the moon)
          A               A
Well Im Forming and Im Warming, (to you)
    E                           E     E    E  E
A State of the art until the Clouds come Crashing
 Bm
Stranger things have happened both,
 D                D
Before and after noon, (before and afternoon)
         A              A
And Im forming and Im warming, (to you)
        E              E  E   E   E     E    E7
And Pushing myself and No I dont mind askin now

Main Riff (Verse)

Chorus:

     Bm
The Stadium Arcadium,
     D                     D
A mirror to the Moon,(A mirror to the moon)
          A               A
Well Im Forming and Im Warming, (to you)
    E                           E     E    E  E
A State of the art until the Clouds come Crashing
 Bm
Stranger things have happened both,
 D                D
Before and after noon, (before and afternoon)
         A              A
And Im forming and Im warming, (to you)
        E              E  E   E   E     E    E7
And Pushing myself and No I dont mind askin now

Main Riff (Verse):

Chorus:

     Bm
The Stadium Arcadium,
     D                     D
A mirror to the Moon,(A mirror to the moon)
          A               A
Well Im Forming and Im Warming, (to you)
    E                           E     E    E  E
A State of the art until the Clouds come Crashing
 Bm
Stranger things have happened both,
 D                D
Before and after noon, (before and afternoon)
         A              A
And Im forming and Im warming, (to you)
        E              E  E   E   E     E
And Pushing myself and No I dont mind askin..

       Bm
The Stadium Arcadium,
      D                  D
A mirror to the Moon,(A mirror to the moon)
           A                A
Well Im Forming and Im Warming,
  E                           E     E    E  E
State of the art until the Clouds come Crashing
Bm
Stranger things have happened both,               |
D                                                 |      Strum Downwards
Before and after noon, (before and afternoon)     |------Quite Fast
A                                    E            |      And Stop At Last
And Im forming and Im warming ..to you.           |      Warming, Strum
                                                         Once At Last "you"

            
            
Suggest correction
Creating personal tab
Creating personal tab
You can edit any tab online and save it as your Personal.

You can edit, replace or remove any tab part or add personal notes – all changes will be seen only by you.

Personal tabs can be accessed anytime from any device, even offline.
Learn more »
comments
print report bad tab
2 comments total.
0 reply
w000t 10 Sep 07, 2007 10:52 AM

fine except beggining
--------------------------
--------2---------2--------
------2--------2----------
----2-------2--------------
--0------------------------
--------------------------

0 reply
RhcpGurl 16 Oct 24, 2007 07:29 AM

yeah i totally forgot about that! ah sorry :(

guest
You may want to rate the tab now too:
select rating
Wanna post a correction for this tab? Suggest correction