Oops, an error
Loading. Please wait.

Stadium Arcadium Tab

version 1
version 1
58,934 views 9 this week
8 commentsread comments
1 2 3 4 5
x 11
add to favorites
×
Save as Personal and add changes to this tab that will be seen only by you. Learn more ›
×
You can save this tab as Personal to edit and correct it or add notes. All changes will be seen only by you. Learn more »
save as personal
new!
launch autoscroll
font size
0
reset
how to read this tab
guitar tuner
Autoscroll
slow
fast
+/-
esc
set tempo
stop
Difficulty
novice
Stadium Arcadium

Red Hot Chili Peppers
Stadium Arcadium
Tabber: Aaron Yeo
Dated: May 2nd, 2006

Intro/Verse:

e|--------------------------------|--------------------------------|
B|--------------------------------|-------2-------2----------------|
G|-------2-------2----------------|-----2-------2------------------|
D|-----4-------4------------------|---2-------2--------------------|
A|---4-------4--------------------|-0------------------------------|
E|-2------------------------------|--------------------------------|

e|--------------------------------|-0---------------0--------------|
B|--------------------------------|-2---------------0--------------|
G|-------2-------2----------------|-2---------------1--------------|
D|-----4-------4------------------|-2---------------2--------------|
A|---4-------4--------------------|-0---------------2--------------|
E|-2------------------------------|-----------------0--------------|

Chorus:

e|---|---|---|---|
B|---|-3-|-2-|---|
G|-4-|-2-|-2-|-1-|
D|-4-|-0-|-2-|-2-|
A|-2-|-0-|-0-|-2-|
E|-2-|---|---|-0-|

Only part I don't have down is the solo but what can you expect, I'm rushing to get this out first hehe.
As you can see, easy power chords and a couple of open chords, that's all.

(don't you just love torrents?)
Suggest correction
comments
print report bad tab
8 comments total. Showing first comments.
0 reply
_BaXteR_ 31 May 08, 2006 10:36 AM

man this is kek. 5 stars

0 reply
i_love_tabs 10 May 13, 2006 02:51 AM

ewsome this tab is realy good thanx

0 reply
MiniMusicMasta 120 May 14, 2006 04:34 AM

awesome

guest
Wanna post a correction for this tab? Suggest correction