Oops, an error
Loading. Please wait.

Stone Cold Bush bass

version 3
version 3

Whole song

Interactive

4,214 views 1 this week
3 commentsread comments
1 2 3 4 5
x 5
add to favorites
×
Save as Personal and add changes to this tab that will be seen only by you. Learn more ›
×
You can save this tab as Personal to edit and correct it or add notes. All changes will be seen only by you. Learn more »
launch autoscroll
font size
0
reset
guitar tuner
backing track
0:00
0:00
edit
Autoscroll
slow
fast
+/-
esc
set tempo
stop
Author
Difficulty
intermediate
-------------------------------------------------------------------------------
	           Stone Cold Bush - Red Hot Chili Peppers
-------------------------------------------------------------------------------
Bassist: Flea
Tabbed By : tiv0
e-mail: tjaixen@cox.net
Tuning: E,A,D,G

Key:
| S  slap
| P  pop
| /  slide up
| \  slide down
| h  hammer-on
| p  pull-off
| ^  bend note
| +  harmonic
| x  Mute note

Intro
G|---------------------3-5-3-5-3----------------|
D|----------------------------------------------|
A|--------------------------------1-3-1-3-1-----|
E|--3---3-0-1-2-033-----------------------------|

Verse 1
G|------------------------------------------------------------------|
D|---------5----------5----------5-------------------5----------5---|
A|------------------------------------------------------------------|
E|--0-2-33-----0-2-33-----0-2-33-----30-1-2---0-2-33-----0-2-33-----|

G|--3-5-3-5-3--------------|
D|-------------------------|  2X
A|-------------1-3-1-3-1---|
E|-------------------------|

Verse 2
G|-------------------------------------------------------------|
D|-------------------------------------------------------------|
A|-------------------------------------------------------------|
E|--0-2-333---0-2-333---0-2-333---30-1-2---0-2-333---0-2-333---|

G|--3-5-3-5-3--------------|
D|-------------------------|  2X
A|-------------1-3-1-3-1---|
E|-------------------------|

Chorus
G|----------------------------------------------------------|
D|--------------------------x-5-----x-5-----x-5-----5555----|
A|----------------------------------------------------------|
E|---88888888-6666\5555---3------33------33------33---------|
     SSSSSSSS SSSS SSSS   S S P  SS S P  SS S P  SS PPPP

G|-----------------------------------------------3-5-3-5-3--------------|
D|----------------------------------------------------------------------|
A|----------------------------------------------------------1-3-1-3-1---|
E|---88888888-6666\5555--3--------3-0-1-2-033---------------------------|
     SSSSSSSS SSSS SSSS  S            

Verse 3
G|-------------------------------------------------------------|
D|-------------------------------------------------------------|
A|-------------------------------------------------------------|
E|--0-2-333---0-2-333---0-2-333---30-1-2---0-2-333---0-2-333---|

G|--3-5-3-5-3--------------|
D|-------------------------|  2X
A|-------------1-3-1-3-1---|
E|-------------------------|

Chorus
G|----------------------------------------------------------|
D|--------------------------x-5-----x-5-----x-5-----5555----|
A|----------------------------------------------------------|
E|---88888888-6666\5555---3------33------33------33---------|
     SSSSSSSS SSSS SSSS   S S P  SS S P  SS S P  SS PPPP

G|-------------------------|
D|-------------------------|  (leads into solo)
A|-------------------------|
E|---88888888-6666\5555----|
     SSSSSSSS SSSS SSSS              

Solo (1st part)
G|---------12----------10-9-10---------12----------10-15-12---|
D|------------x-10h12---------------------x-10h12-------------|
A|---10-x------------------------10-x-------------------------|
E|------------------------------------------------------------|
     S  S  P  S S      P  P P    S  S  P  S S      P  P  P

G|---------12----------10-10^---15-14-13-12|
D|------------x-10h12----------------------|      (continue on to 2nd 
A|---10-x----------------------------------|          part of solo)
E|-----------------------------------------|
     S  S  P  S S      P  P     P  P  P  P

Solo (2nd part)
G|-------------------------------------------------|
D|-----------x-55-----x-33-----x-55----------------| repeat 2nd part 10X
A|-------------------------------------------------|
E|---6-5-4-3------3-1------1-3------3-1--6-5-4-3---|
     S S S S S PP S S S PP S S S PP S S  S S S S

(leads into)
G|-------------------------------------12-10------|
D|------------------------------------------------|
A|------------------------------------------------|
E|---10----| <--play that note 24x |----------3---|
     S                                 P  P   

Bridge
G|-----------------3-5-3-5-3-----------------|
D|-------------------------------------------|
A|-----------------------------1-3-1-3-1-----|
E|--3-0-1-2-033------------------------------|

Verse 4
G|------------------------------------------------------------------|
D|---------5----------5----------5-------------------5----------5---|
A|------------------------------------------------------------------|
E|--0-2-33-----0-2-33-----0-2-33-----30-1-2---0-2-33-----0-2-33-----|

G|--3-5-3-5-3--------------|
D|-------------------------|  2X
A|-------------1-3-1-3-1---|
E|-------------------------|

Verse 5
G|-------------------------------------------------------------|
D|-------------------------------------------------------------|
A|-------------------------------------------------------------|
E|--0-2-333---0-2-333---0-2-333---30-1-2---0-2-333---0-2-333---|

G|--3-5-3-5-3--------------|
D|-------------------------|  2X
A|-------------1-3-1-3-1---|
E|-------------------------|

Chorus
G|----------------------------------------------------------|
D|--------------------------x-5-----x-5-----x-5-----5555----|
A|----------------------------------------------------------|
E|---88888888-6666\5555---3------33------33------33---------|
     SSSSSSSS SSSS SSSS   S S P  SS S P  SS S P  SS PPPP

G|-------------------------|
D|-------------------------|  (leads into solo)
A|-------------------------|
E|---88888888-6666\5555----|
     SSSSSSSS SSSS SSSS              

Solo (1st part)
G|---------12----------10-9-10---------12----------10-15-12---|
D|------------x-10h12---------------------x-10h12-------------|
A|---10-x------------------------10-x-------------------------|
E|------------------------------------------------------------|
     S  S  P  S S      P  P P    S  S  P  S S      P  P  P

G|---------12----------10-9-10--15-14-13-12|
D|------------x-10h12----------------------|  
A|---10-x----------------------------------| 
E|-----------------------------------------|
     S  S  P  S S      P  P     P  P  P  P

G|-------------|
D|-------------|
A|-------------|
E|---6-5-4-3---|
     S S S S  

Questions or Comments, please email me.
=============================================================================

            
            
Suggest correction
Creating personal tab
Creating personal tab
You can edit any tab online and save it as your Personal.

You can edit, replace or remove any tab part or add personal notes – all changes will be seen only by you.

Personal tabs can be accessed anytime from any device, even offline.
Learn more »
comments
print report bad tab
3 comments total.
-2 reply
tiv0 114 Aug 16, 2006 12:44 PM

killer tab!!

0 reply
jay bird!!! 20 Mar 11, 2007 08:20 AM

This tab is alot better than the other ones.

0 reply
gvidas.grabys 10 Nov 02, 2016 01:30 PM

My friend Žygimantas is learning to play this. He told me that hes putting his dick on the test and learning this song. Oh and please guys bring back 79

guest
You may want to rate the tab now too:
select rating
Wanna post a correction for this tab? Suggest correction