Oops, an error
Loading. Please wait.
We have Chord Pro version of Tell Me Baby.
It's the closest thing you can get to the original song and it has interactive parts. Check out the tab »
×
112,066 views 15 this week
12 commentsread comments
1 2 3 4 5
x 20
add to favorites
×
Save as Personal and add changes to this tab that will be seen only by you. Learn more ›
×
You can save this tab as Personal to edit and correct it or add notes. All changes will be seen only by you. Learn more »
launch autoscroll
font size
0
reset
how to read this tab
guitar tuner
backing track
0:00
0:00
edit
Autoscroll
slow
fast
+/-
esc
set tempo
stop
Author
“Tell me baby” by Red Hot Chili Peppers
Chords & guitar part by John Frusciante
Tabbed by Dan Bogosian (UtBDan)
Visit UtBDan's band at:
http://www.utbrocks.com/

^ = small bend or vibrato.

INTRO:
e--------------------|----------------1---|----------------1---|-----------3--|
B----1---1----0--1---|----1---1----0--3---|----1---1----0---1--|----1---1-----|
G---2---0----0---2---|---2---0----0---2---|---2---0----0-----2-|---2---0------|
D--------------------|--------------------|--------------------|-----------0--|
A-0----3-----------0-|-0----3-------------|-0----3-------------|-0----3----2--|
E-----------3--------|-----------3--------|-----------3--------|-----------3--|

VERSE:
e-----------------|----------------|-----------------|---------8-7------|
B-8-10----8—10----|-8-10---8--10---|-8-10---8—10-----|-8-10--------10—8-|
G------9--------9-|-----9--------99|------9--------9-|-----9------------|
D-----------------|----------------|-----------------|------------------|
A-----------------|----------------|-----------------|------------------|
E-----------------|----------------|-----------------|------------------|

e-----------------|----------------|-----------------|---------8-7------|
B-8-10----8—10----|-8-10---8--10---|-8-10---8—10-----|-8-10--------10—8-|
G------9--------9-|-----9--------99|------9--------9-|-----9------------|
D-----------------|----------------|-----------------|------------------|
A-----------------|----------------|-----------------|------------------|
E-----------------|----------------|-----------------|------------------|

e-12--12--12-12-1212-|-12--12--12-12-1212-|-12--12--12-12-1212-|
B-12--12--12-12-1212-|-12--12--12-12-1212-|-12--12--12-12-1212-|
G--------------------|--------------------|--------------------|
D--------------------|--------------------|--------------------|
A--------------------|--------------------|--------------------|
E--------------------|--------------------|--------------------|

e-12-12--1515151515-|
B-12-12--1515151515-|
G-------------------|
D-------------------|
A-------------------|
E-------------------|

e-----------------|----------------|-----------------|---------------------|
B-8-10----8—10----|-8-10---8--10---|-8-10---8—10-----|-8-10----10-10^—8-10-|
G------9--------9-|-----9--------99|------9--------9-|-----9---------------|
D-----------------|----------------|-----------------|---------------------|
A-----------------|----------------|-----------------|---------------------|
E-----------------|----------------|-----------------|---------------------|

CHORUS:
e--------------------|-----------------------|
B----1---1----0--1---|----1---1----0--66X6-6-|
G---2---0----0---2---|---2---0----0---77X7-7-|
D--------------------|----------------77X7-7-|
A-0----3-----------0-|-0----3---------55X5-5-|
E-----------3--------|-----------3-----------|

e----------------1---|-----------13-13X13--13-|
B----1---1----0---1--|----1---1--15-15X15--15-|
G---2---0----0-----2-|---2---0---14-14X14--14-|
D--------------------|-----------12-12X12--12-|
A-0----3-------------|-0----3-----------------|
E-----------3--------|------------------------|

NOTE this is basically:
Am7     C
Tell me baby
G           Am
What`s your story
Am7       C
Where you come from
Dm
And where you wanna go this time

Am7     C
Tell me lover
G       Am
Are you lonely
Am7
The thing we need is never
Dm
All that hard to find

            
            
Suggest correction
Creating personal tab
Creating personal tab
You can edit any tab online and save it as your Personal.

You can edit, replace or remove any tab part or add personal notes – all changes will be seen only by you.

Personal tabs can be accessed anytime from any device, even offline.
Learn more »
comments
print report bad tab
12 comments total. Showing first comments.
0 reply
Has Many Issues 70 Dec 02, 2005 08:25 AM

Thank you so much...I have been looking everywhere for this, I am extremely glad I found this. It's a fantastic song.

0 reply
BMat830 21 Dec 02, 2005 03:22 PM

i love u UTBDan!

0 reply
Lord Mike 10 Feb 12, 2006 05:19 AM

Thaaanks!!

guest
You may want to rate the tab now too:
select rating
Wanna post a correction for this tab? Suggest correction