Oops, an error
Loading. Please wait.
We have Chord Pro version of Tell Me Baby.
It's the closest thing you can get to the original song and it has interactive parts. Check out the tab »
×
3,859 views 6 this week
4 commentsread comments
1 2 3 4 5
2 more votes to show rating
add to favorites
×
Save as Personal and add changes to this tab that will be seen only by you. Learn more ›
×
You can save this tab as Personal to edit and correct it or add notes. All changes will be seen only by you. Learn more »
launch autoscroll
font size
0
reset
guitar tuner
backing track
0:00
0:00
edit
Autoscroll
slow
fast
+/-
esc
set tempo
stop
Author
Difficulty
Legend:
s: slap
p: pop
h: hammer on
p: pull
x: muted note
/: slide up
\: slide down

Intro:

G:-10------------------10------------------10------------------10------------------------|
D:------10------------------10--------12--------10------------------10---12--------------|
A:-----------10---12-------------10------------------10---12-----------------------------|
E:---------------------------------------------------------------------------------------|


Verse:
   p   s p sss sss sss p   s p sss sss sss p   s p sss sss sss p   s p sss s s s s
G:---------------------------------------------------------------------------------------|
D:-5h7---5-------------5h7---5-------------5h7---5-------------5h7---5-------------------|
A:---------------------------------------------------------------------------------------|
E:-----x---x55-x55-x55-----x---x55-x55-x55-----x---x55-x55-x55-----x---x55-0-0-3-3-------|

Chorus:
   s s p p s s p s s s s p p s s p s s s s p p s s p s s s s p p s  s p s s s s p p s
G:-------------5-----------------------------------5------------------7------------------|
D:-----3-3---------------5-5-----7---------3-3---------------5-5----------------3-3------|
A:-----------3---x-3-----------------------------3---x-3-----------/5---5-5--------------|
E:-1-x-----1---------3-x-----3-5---5-3-1-x-----1---------3-x-----3----------1-x-----1----|
   s p s s s s p p s s p s s s s p p s s p s s s s s p s s s s p s s s p s p s s p s s
G:---5-----------------------------------5---------------------------------------5-------|
D:-------------5-5-----7---------3-3-----------------5---------5-------3---3-------------|
A:-3---x-3-----------------------------3---x-3---------------------------------3---x-3---|
E:---------3-x-----3-5---5-3-1-x-----1---------3-x-x---3-3-x-x---3-1-x---x---1-----------|
   s s p s p s s p s s s s p s p s s s s s s s p s p s  s p s s s s p s p s s p s s
G:-----------------------------------5--------------------7-------------------5----------|
D:-----5---5-----7---------3---3---------------5---5----------------3---3----------------|
A:---------------------------------3---x-3-------------/5---5-5-------------3---x-3------|
E:-3-x---x---3-5---5-3-1-x---x---1---------3-x---x---3----------1-x---x---1--------------|
   s s s p s p s s s p s p s p s p s p s s s s s
G:---------------------------------------------------------------------------------------|
D:-------5---5-------5---5---5---5---5---------------------------------------------------|
A:---------------------------------------------------------------------------------------|
E:-3-x-x---3---3-x-x---3---3---3---3---3-3-3-3-3-----------------------------------------|

Guitar Solo:
   p   s p s s s s s s s s s p   s p s s s s s s s s s p   s p s s s s s s s s s
G:---------------------------------------------------------------------------------------|
D:-5h7---5-------------------5h7---5-------------------5h7---5---------------------------|
A:---------------------------------------------------------------------------------------|
E:-----x---x-5-5-x-5-5-x-5-5-----x---x-5-5-x-5-5-x-5-5-----x---x-5-5-x-5-5-x-5-5---------|
   p   s p s s s             p   s p s s s s s s s s s p   s p s s s s s s s s s
G:-----------------5-7-8-7-5-------------------------------------------------------------|
D:-5h7---5-------7-----------5h7---5-------------------5h7---5---------------------------|
A:---------------------------------------------------------------------------------------|
E:-----x---x-5-5-----------------x---x-5-5-x-5-5-x-5-5-----x---x-5-5-x-5-5-x-5-5---------|

G:---------------------------------------------------------------------------------------|
D:-5h7---5-------------------5h7---5-------7-5-------------------------------------------|
A:---------------------------------------------7-5-3-------------------------------------|
E:-----x---x-5-5-x-5-5-x-5-5-----x---x-5-5-----------------------------------------------|

Outro:

G:---------------------------------------------------------------------------------------|
D:---------------------------------------------------------------------------------------|
A:-0-------------------------------------------------------------------------------------|
E:---------------------------------------------------------------------------------------|

Email me if this tab helped at all or if you have any comments or compliants
Suggest correction
Creating personal tab
Creating personal tab
You can edit any tab online and save it as your Personal.

You can edit, replace or remove any tab part or add personal notes – all changes will be seen only by you.

Personal tabs can be accessed anytime from any device, even offline.
Learn more »
Give kudos to tab author, rate the tab!
1 2 3 4 5
comments
print report bad tab
4 comments total. Showing first comments.
+1 reply
Lukifer1113 10 May 17, 2007 02:08 PM

i like that somebody actually tabbed the intro

0 reply
music_freeke 73 Aug 17, 2007 04:53 PM

Thanks Man This Tab Took Me A Long Time To Write And Figure Out

-1 reply
bass_prodigy15 10 Sep 15, 2007 05:49 PM

I am going to put out an almost spot on version of the verse right here:
G-------------------- G------------------
D--5h7-5-x----------- D-5h7-7-x----------
A-------------------- A------------------
E-----x----x55-x55x5- three times,then E----x---5-0-0-3-3-

guest
You may want to rate the tab now too:
select rating
Wanna post a correction for this tab? Suggest correction