Oops, an error
Loading. Please wait.
We have Chord Pro version of Tell Me Baby.
It's the closest thing you can get to the original song and it has interactive parts. Check out the tab »
×
7,139 views 1 this week
7 commentsread comments
1 2 3 4 5
x 14
add to favorites
×
Save as Personal and add changes to this tab that will be seen only by you. Learn more ›
×
You can save this tab as Personal to edit and correct it or add notes. All changes will be seen only by you. Learn more »
launch autoscroll
font size
0
reset
how to read this tab
guitar tuner
backing track
0:00
0:00
edit
Autoscroll
slow
fast
+/-
esc
set tempo
stop
Author
Difficulty
                         Red Hot Chili Peppers
                             Tell Me Baby

Tabbed By:Alex Adams
E-Mailalex7adams@yahoo.co.uk

Tuning:ebgdae

Intro
                               |1st time| 2nd time | 
e|------------------------------1------------------|
b|--1---1---0-1------1---1---0--3------------------|
g|2---0-------2-2--2---0--------2----------0-------|
d|3---2------------3---2--------0----------0-------|
a|--------2----------------2---------------2-------|
e|--------3----------------3---------------3-------|

Intro (alternate)
                                   |1st time | 2nd time |
e|----------------------------------1-------------------
b|--1---1---0-1h3p1------1---1---0--3-------------------
g|2---0-------------2--2---0--------2-----------0--------
d|3---2----------------3---2--------0-----------0--------
a|--------2--------------------2----------------2--------
e|--------3--------------------3----------------3--------



Verse
e|------------------------------------------------------------|
b|---10----10-10-------10----10-10---------10----10-10--------|
g|12----12-------9--12----12-------9-9--12----12-------9------|
d|------------------------------------------------------------|
a|------------------------------------------------------------|
e|------------------------------------------------------------|

e|----------------------------------------|
b|---10----13-13-12-10-10-----------------|
g|12----12--------------------------------|     (Repeat as needed)
d|----------------------------------------|
a|----------------------------------------|
e|----------------------------------------|

Then
e|-------------------------|
b|10--10--10---------------|
g|10--10--10--ETC----------|
d|-------------------------|
a|-------------------------|
e|-------------------------|

Chorus

e|--------------------------------------|
b|---13----13----12-13------------------|
g|14----12----------14-14---------------|    (Repeat as needed)
d|15----14------------------------------|
a|------------14------------------------|
e|------------15------------------------|

Intro (alternate) is the way john Frusciante
played it on TOTP's. 


|  H   Hamer-on  
|  P   Pull-off



            
            
Suggest correction
Creating personal tab
Creating personal tab
You can edit any tab online and save it as your Personal.

You can edit, replace or remove any tab part or add personal notes – all changes will be seen only by you.

Personal tabs can be accessed anytime from any device, even offline.
Learn more »
comments
print report bad tab
7 comments total. Showing first comments.
0 reply
stupiak 10 Jun 06, 2006 12:35 AM

good job man :)

0 reply
Rocker Dan 10 Jun 06, 2006 06:55 AM

brilliant tab! Thanks!

06/06/06!

0 reply
pat1990 10 Jun 09, 2006 02:54 AM

Cheers man tabs ****ing brilliant

guest
You may want to rate the tab now too:
select rating
Wanna post a correction for this tab? Suggest correction