Oops, an error
Loading. Please wait.

Tell Me Baby Tab

version 5
485,533 views 492 this week
99 commentsread comments
1 2 3 4 5
excellent!
x 414
add to favorites
launch autoscroll
font size
0
reset
how to read this tab
guitar tuner
Autoscroll
slow
fast
+/-
esc
set tempo
stop
Help us to improve Ultimate-Guitar.com Take our survey!
×
Author
Artist : Red Hot Chili Peppers
Song : Tell me baby
Album : Stadium Arcadium 
Tab by: Beberasmus bebe_4048@hotmail.com

Hey people! I correct some mistakes and thanks for the comments!
20-03-07 uptd 


[Intro]

E|-------------------------|
B|---1----1--------0---1---|
G|-2-----0-----0---------2-|
D|-3-----2-----------------|
A|-------------------------|
E|-------------------------|

E|-------------------1-|
B|---1----1--------0-3-|
G|-2-----0-----0-----2-|
D|-3-----2-----------0-|
A|-------------------0-|
E|-------------------0-|

E|-------------------------|
B|---1----1--------0---1---|
G|-2-----0-----0---------2-|
D|-3-----2-----------------|
A|-------------------------|
E|-------------------------|

E|-----------3-|
B|---1----1--3-|
G|-2-----0---4-|
D|-3-----2---3-|
A|-----------5-|
E|-----------3-|

Then:
E|----------------------------------------|
B|----------------------------------------|
G|-x-12--14-----x-12-x-14-x-------x-x-x-x-|
D|-x---------14-x----x----x-14-14-x-x-x-x-|x3
A|----------------------------------------|
E|----------------------------------------|

E|----------------------------------|
B|--------------13-12---------------|
G|-x-12--14--12-------x-14-x--12-14-|
D|-x------------------x----x--------|
A|----------------------------------|
E|----------------------------------|


[Verse] x2

E|----------------------------------------|
B|----------------------------------------|
G|-x-12--14-----x-12-x-14-x-------x-x-x-x-|
D|-x---------14-x----x----x-14-14-x-x-x-x-|x3
A|----------------------------------------|
E|----------------------------------------|

E|----------------------------------|
B|--------------13-12---------------|
G|-x-12--14--12-------x-14-x--12-14-|
D|-x------------------x----x--------|
A|----------------------------------|
E|----------------------------------|

Then:
E|-12-x-x-12-x-x-12-x-x-12-12---12-12--x-x--12-x-12-x-x-|
B|-12-x-x-12-x-x-12-x-x-12-12---12-12--x-x--12-x-12-x-x-|
G|----x-x----x-x----x-x----------------x-x-----x----x-x-|
D|------------------------------------------------------|x3
A|------------------------------------------------------|
E|------------------------------------------------------|

E|-15-15-15-15-15-15-15-15-15-15-15-15-|
B|-15-15-15-15-15-15-15-15-15-15-15-15-|
G|-16-16-16-16-16-16-16-16-16-16-16-16-|
D|-------------------------------------|
A|-------------------------------------|
E|-------------------------------------|

E|----------------------------------------|
B|----------------------------------------|
G|-x-12--14-----x-12-x-14-x-------x-x-x-x-|
D|-x---------14-x----x----x-14-14-x-x-x-x-|x3
A|----------------------------------------|
E|----------------------------------------|

E|------------------|
B|------------------|
G|-x-12--14--12h14~-|
D|-x----------------|
A|------------------|
E|------------------|


[Chorus]

E|--------------------------------------------13--------|
B|----13----13------12-13--------13----13---12-----15---|
G|-14----12------12-------14---14----12---12-----14--14-|
D|------------------------------------------------------|
A|------------------------------------------------------|
E|------------------------------------------------------|

E|---------------------------------------------13----13-|
B|------13----13-----12-13--------13----13-----12----12-|
G|---14----12-----12-------14--14----12-----12-12-12-12-|
D|------------------------------------------------------|
A|------------------------------------------------------|
E|------------------------------------------------------|

E|----------------------------------------13------------------------------------------------|
B|---13--13----12-13--------13----13----12------15---------13---13-----12-13-------13----13-|
G|-14--12---12-------14--14----12-----12-----14----14---14----12----12-------14--14---12----|
D|------------------------------------------------------------------------------------------|
A|------------------------------------------------------------------------------------------|
E|------------------------------------------------------------------------------------------|

E|-13--13--13--13--13-|
B|-12--12--12--12--12-|
G|--------------------|
D|--------------------|
A|--------------------|
E|--------------------|

Then:
E|----------------------17^~--|
B|--------------10~~~---------|
G|--------9~~-----------------|
D|-(h7)-----------------------|
A|----------------------------|
E|-----5~~--------------------|


[Verse 2] x2

E|----------------------------------------|
B|----------------------------------------|
G|-x-12--14-----x-12-x-14-x-------x-x-x-x-|
D|-x---------14-x----x----x-14-14-x-x-x-x-|x3
A|----------------------------------------|
E|----------------------------------------|

E|----------------------------------|
B|--------------13-12---------------|
G|-x-12--14--12-------x-14-x--12-14-|
D|-x------------------x----x--------|
A|----------------------------------|
E|----------------------------------|

Then:
E|-12-x-x-12-x-x-12-x-x-12-12---12-12--x-x--12-x-12-x-x-|
B|-12-x-x-12-x-x-12-x-x-12-12---12-12--x-x--12-x-12-x-x-|
G|----x-x----x-x----x-x----------------x-x-----x----x-x-|
D|------------------------------------------------------|x3
A|------------------------------------------------------|
E|------------------------------------------------------|

E|-15-15-15-15-15-15-15-15-15-15-15-15-|
B|-15-15-15-15-15-15-15-15-15-15-15-15-|
G|-16-16-16-16-16-16-16-16-16-16-16-16-|
D|-------------------------------------|
A|-------------------------------------|
E|-------------------------------------|

E|----------------------------------------|
B|----------------------------------------|
G|-x-12--14-----x-12-x-14-x-------x-x-x-x-|
D|-x---------14-x----x----x-14-14-x-x-x-x-|x3
A|----------------------------------------|
E|----------------------------------------|

E|------------------|
B|------------------|
G|-x-12--14--12h14~-|
D|-x----------------|
A|------------------|
E|------------------|


[Chorus]

E|--------------------------------------------13--------|
B|----13----13------12-13--------13----13---12-----15---|
G|-14----12------12-------14---14----12---12-----14--14-|
D|------------------------------------------------------|
A|------------------------------------------------------|
E|------------------------------------------------------|

E|---------------------------------------------13----13-|
B|------13----13-----12-13--------13----13-----12----12-|
G|---14----12-----12-------14--14----12-----12-12-12-12-|
D|------------------------------------------------------|
A|------------------------------------------------------|
E|------------------------------------------------------|

E|----------------------------------------13------------------------------------------------|
B|---13--13----12-13--------13----13----12------15---------13---13-----12-13-------13----13-|
G|-14--12---12-------14--14----12-----12-----14----14---14----12----12-------14--14---12----|
D|------------------------------------------------------------------------------------------|
A|------------------------------------------------------------------------------------------|
E|------------------------------------------------------------------------------------------|

E|-13--13--13--13--13-|
B|-12--12--12--12--12-|
G|--------------------|
D|--------------------|
A|--------------------|
E|--------------------|


[Solo]

E|------------------------------------------------------------------------------------------------|
B|------------------------------------------------------------------------------------------------|
G|------------------------------------------------------------------------------------------------|
D|-14~--10h12p10---------10-12-----10-12------10-12-----10-12--------10------10-------12-------10-|
A|----------------12--12--------12---------12--------12--------10-12----10-12---10-12-----12-10---|
E|------------------------------------------------------------------------------------------------|

E|---------------------------------15-16-17-|
B|--------------------------13-15-----------|
G|--------------12-x-12-14------------------|
D|----12----10------------------------------|
A|-12----12---------------------------------|
E|------------------------------------------|


[Chorus]

E|--------------------------------------------13--------|
B|----13----13------12-13--------13----13---12-----15---|
G|-14----12------12-------14---14----12---12-----14--14-|
D|------------------------------------------------------|
A|------------------------------------------------------|
E|------------------------------------------------------|

E|---------------------------------------------13----13-|
B|------13----13-----12-13--------13----13-----12----12-|
G|---14----12-----12-------14--14----12-----12-12-12-12-|
D|------------------------------------------------------|
A|------------------------------------------------------|
E|------------------------------------------------------|

E|----------------------------------------13------------------------------------------------|
B|---13--13----12-13--------13----13----12------15---------13---13-----12-13-------13----13-|
G|-14--12---12-------14--14----12-----12-----14----14---14----12----12-------14--14---12----|
D|------------------------------------------------------------------------------------------|
A|------------------------------------------------------------------------------------------|
E|------------------------------------------------------------------------------------------|

E|-13--13--13--13--13-|
B|-12--12--12--12--12-|
G|--------------------|
D|--------------------|
A|--------------------|
E|--------------------|



************************************

| x  Dead note
| h  Hammer-on
| p  Pull-off
| ~  Vibrato 

************************************
Suggest correction
comments
print report bad tab
99 comments total. Showing first comments.
0 reply
tcspinks 31 wrote on July 29 2006, 06:59 am

best tab ive seen so far for this song. WELL DONE!!

0 reply
sebastian_96 204 wrote on July 29 2006, 08:00 am

heres to you man
great tab
5 stars from me

0 reply
Guitar-God-Elf 211 wrote on July 29 2006, 12:36 pm

is the solo reallys that short??
btw excellent tab and best iv seen for this song
cheers for this
5 stars

guest
You may want to rate the tab now too:
select rating
Wanna post a correction for this tab? Suggest correction