Oops, an error
Loading. Please wait.

The Adventures Of Rain Dance Maggie Bass Tab

version 3
version 3

Interactive

9,780 views 9 this week
1 commentread comment
1 2 3 4 5
x 4
add to favorites
launch autoscroll
font size
0
reset
guitar tuner
Autoscroll
slow
fast
+/-
esc
set tempo
stop
Help us to improve Ultimate-Guitar.com Take our survey!
×
Author
++++++++++++++++++++++++++++++++++++++++++++++++++++++++++++++
| Red Hot Chili Peppers- The Adventures Of Rain Dance Maggie |
++++++++++++++++++++++++++++++++++++++++++++++++++++++++++++++


"We've gotta make it rain somehow..."


Here the new single of RHCP
enjoy and please rate!


Tuning: EADG


Intro
1.
G|--------00----------------------------00----0----------------|
D|-2--2--2--2-0----------00--0-1-2--2--2--2-0----------00------|
A|--------------4-3--3--3--3--------------------3--3--3--3-2-0-|--x2
E|-------------------------------------------------------------|

Verse
"Lipstick junkie be funky all he wanty
2.
G|--------00----------------------------00----0----------------|
D|-2--2--2--2-0----------00--0-1-2--2--2--2-0----------00------|
A|--------------4-3--3--3--3--------------------3--3--3--3-2-0-|--x5
E|-------------------------------------------------------------|

Chorus
"Hey now, we've gotta make it rain somehow..."
3.
G|---------------------9-----9---9---------------------9-----9---9-|
D|-----5-----5---5---------------------5-----5---5-----------------|
A|-----------------7-7---7-7---7-------------------7-7---7-7---7---|
E|-3-3---3-3---3-------------------3-3---3-3---3-------------------|

"She told me too..."
4.
G|-----5-----5---5-----4-----4---4---------------------------------|
D|-------------------------------------7-----7---------------------|
A|-3-3---3-3---3---2-2---2-2---2-----------------345-5-5-5-5-5-5-5-|
E|---------------------------------5-5---5-5---5-------------------|

"Hey now, we've gotta make it rain somehow..."
5.
G|---------------------9-----9---9---------------------9-----9---9-|
D|-----5-----5---5---------------------5-----5---5-----------------|
A|-----------------7-7---7-7---7-------------------7-7---7-7---7---|
E|-3-3---3-3---3-------------------3-3---3-3---3-------------------|

"She told me too..."
6.
G|-----5-----5---5-----4-----4---4---------------------------------|
D|-------------------------------------7-----7---------------------|
A|-3-3---3-3---3---2-2---2-2---2-----------------345-5-5-5-5-5-5-5-|
E|---------------------------------5-5---5-5---5-------------------|

Outro
7.
G|--------00----------------------------00----0----------------|
D|-2--2--2--2-0----------00--0-1-2--2--2--2-0----------00------|
A|--------------4-3--3--3--3--------------------3--3--3--3-2-0-|
E|-------------------------------------------------------------|

Verse
"Rain dance maggie advances to the final..."
8.
G|--------00----------------------------00----0----------------|
D|-2--2--2--2-0----------00--0-1-2--2--2--2-0----------00------|
A|--------------4-3--3--3--3--------------------3--3--3--3-2-0-|--x2
E|-------------------------------------------------------------|

Chorus
"Hey now, we've gotta make it rain somehow..."
9.
G|---------------------9-----9---9---------------------9-----9---9-|
D|-----5-----5---5---------------------5-----5---5-----------------|
A|-----------------7-7---7-7---7-------------------7-7---7-7---7---|
E|-3-3---3-3---3-------------------3-3---3-3---3-------------------|

"She told me too..."
10.
G|-----5-----5---5-----4-----4---4---------------------------------|
D|-------------------------------------7-----7---------------------|
A|-3-3---3-3---3---2-2---2-2---2-----------------345-5-5-5-5-5-5-5-|
E|---------------------------------5-5---5-5---5-------------------|

Outro
11.
G|--------00----------------------------00----0----------------|
D|-2--2--2--2-0----------00--0-1-2--2--2--2-0----------00------|
A|--------------4-3--3--3--3--------------------3--3--3--3-2-0-|--x2
E|-------------------------------------------------------------|

Bridge
"You got the wrong girl..."
12.
G|--------00----------------------------00----0----------------|
D|-2--2--2--2-0----------00--0-1-2--2--2--2-0----------00------|
A|--------------4-3--3--3--3--------------------3--3--3--3-2-0-|--x2
E|-------------------------------------------------------------|

Chorus
"Hey now, we've gotta make it rain somehow..."
13.
G|---------------------9-----9---9---------------------9-----9---9-|
D|-----5-----5---5---------------------5-----5---5-----------------|
A|-----------------7-7---7-7---7-------------------7-7---7-7---7---|
E|-3-3---3-3---3-------------------3-3---3-3---3-------------------|

"She told me too..."
14.
G|-----5-----5---5-----4-----4---4---------------------------------|
D|-------------------------------------7-----7---------------------|
A|-3-3---3-3---3---2-2---2-2---2-----------------345-5-5-5-5-5-5-5-|
E|---------------------------------5-5---5-5---5-------------------|

"Hey now, we've gotta make it rain somehow..."
15.
G|---------------------9-----9---9---------------------9-----9---9-|
D|-----5-----5---5---------------------5-----5---5-----------------|
A|-----------------7-7---7-7---7-------------------7-7---7-7---7---|
E|-3-3---3-3---3-------------------3-3---3-3---3-------------------|

"She told me too..."
16.
G|-----5-----5---5-----4-----4---4---------------------------------|
D|-------------------------------------7-----7---------------------|
A|-3-3---3-3---3---2-2---2-2---2-----------------345-5-5-5-5-5-5-5-|
E|---------------------------------5-5---5-5---5-------------------|

Outro
17.
G|--------00----------------------------00----0----------------|
D|-2--2--2--2-0----------00--0-1-2--2--2--2-0----------00------|
A|--------------4-3--3--3--3--------------------3--3--3--3-2-0-|--until song fades
E|-------------------------------------------------------------|


Please rate thank you!


Lyrics:

Lipstick junkie be funky all he wanty
she came back wearing a smile
Look-alike someone drug me
they wanted to unplug me
No one in here is on trial
Its just a turn-around

And we go
well and we go

Tic-toc, I want to rock you like the 80s
Cock-blocking isn’t allowed.
Tug boat sheila is into memorabilia
Who said three is a crowd?
We better get it on the go

Hey, now
We’ve gotta make it rain somehow
She told me too
And show me what to do
Oh Maggie makes it in her cloud

She knows how, to make it loud

Rain dance maggie advances to the final
Who knew that she had the goods?
Little did I know her body was one delicious vinyl
To your neck of the woods
I want to lick a little bit

You got the wrong girl
But not for long girl
Its in a song girl
Cos I’ll be gone girl

I said hey now
I want to rock this valley crowd
She told me to
And told me what to do
She knows how to make it loud

But not for longer
Its in a song girl
Cos I’ll be gone bye bye yeah



+++++++++++
| Raileff |
+++++++++++
Suggest correction
comments
print report bad tab
1 comment total.
0 reply
beep1 31 Jul 21, 2011 10:59 AM

Verse is wrong on the d string

guest
You may want to rate the tab now too:
select rating
Wanna post a correction for this tab? Suggest correction