Oops, an error
Loading. Please wait.

The Longest Wave intro tab

version 1
version 1

Intro

Whole song

Interactive

2,413 views 9 this week
2 commentsread comments
1 2 3 4 5
x 6
add to favorites
×
Save as Personal and add changes to this tab that will be seen only by you. Learn more ›
×
You can save this tab as Personal to edit and correct it or add notes. All changes will be seen only by you. Learn more »
launch autoscroll
font size
0
reset
how to read this tab
guitar tuner
edit
Autoscroll
slow
fast
+/-
esc
set tempo
stop
[Intro]


    C chord position                G Chord position    
e|----------0-------------2h3---------------------------------------------------|
B|------0h1---1---------0-----0--------------3-----------5----------------------|
G|-------------0----------------0-------0------0---------5--------5--5----------|
D|---2----------2-----2-----------2-------0--------0-----5-5------5--5h7p5------|
A|-3--------------------------------2------------2-------3----5/7----------7-/5-|
E|------------------------------------3-----------------------------------------|

e|--------------------------------------------------7-------------------------|
B|----------3-------------------------7-8-8---------8-------------------------|
G|----------4---4h5p4-4h5p4-----------------7-------9--- -ish  ---------------|
D|-------5--5---5-----5-----5/7-----9---------9-----9-------------------------|
A|--------------------------------7-------------7---7-------------------------|
E|--3( with thumb)------------------------------------------------------------|



************************************
| h   Hammer-on
| p   Pull-off
| /   Slide 
************************************

I don't think its 100% incorrect, but it sounds near enough
please feel free to message me with any corrections you can find

            
            
Suggest correction
Creating personal tab
Creating personal tab
You can edit any tab online and save it as your Personal.

You can edit, replace or remove any tab part or add personal notes – all changes will be seen only by you.

Personal tabs can be accessed anytime from any device, even offline.
Learn more »
comments
print report bad tab
2 comments total.
0 reply
thejako 77 Jun 18, 2016 12:07 PM, edited on June 21 2016, 05:15 pm

ok I forgot the capo. sorry for that. it's good

0 reply
thejako 77 Jun 21, 2016 01:25 PM

but the end is kinda wrongish. still nice try

guest
You may want to rate the tab now too:
select rating
Wanna post a correction for this tab? Suggest correction