Oops, an error
Loading. Please wait.

The Longest Wave tab

version 2
version 2

Whole song

Interactive

Video

24,598 views 243 this week
2 commentsread comments
1 2 3 4 5
x 32
add to favorites
×
Save as Personal and add changes to this tab that will be seen only by you. Learn more ›
×
You can save this tab as Personal to edit and correct it or add notes. All changes will be seen only by you. Learn more »
launch autoscroll
font size
0
reset
how to read this tab
guitar tuner
edit
Autoscroll
slow
fast
+/-
esc
set tempo
stop
Author
Difficulty
intermediate
https://www.youtube.com/watch?v=_wZty02Pfec


[Intro]

     Eb              Gm              Bbmaj7          Eb

e|-----------3-----------5h6-----------------------5---------------------------|
B|-------3h4---4-------------8-------------6-------------8--------(8)----------|
G|---------------3-----7-------7-------7-------7-------8--------8--8h10p8-8----|
D|-----5-----------5-5-----------5-0-----7-------7-----8--------8---------10\8-|
A|---6-----------------------------------------------6-----9/10----------------|
E|-----------------------------------6-----------------------------------------|

   Bb    Bbsus4/Bb         Gm             Cm                   Bb
                                                             let ring

e|----------------------------------------------11-----11------10--------------|
B|-------------6-----------------11------------x--13-----13----11-11-----------|
G|-(7)---7h8p7-8p7------------------12-------12-----12-----12--10----10--------|
D|-(8)-8-8-----8-- -8/10------12-------12-10-----------------------------------|
A|-(8)-------------------8/10--------------------------------------------------|
E|-(6)------------------------------------------------------------------10\----|


[Verse]

    Eb      Db      Eb       Db                     
e|-----------4--------6--------4-----------------------------------------------|
B|----8--------6--------8--------6---------------------------------------------|
G|-----------------------------------------------------------------------------|
D|-----------------------------------------------------------------------------|
A|--6----6\4------4/6------6\4------4/6----------------------------------------|
E|-----------------------------------------------------------------------------|
    Eb      Db       Gm          F

e|--6--------4-----------------------------------------------------------------|
B|----8--------6-------11----------10------------------------------------------|
G|------------------------------------10---------------------------------------|
D|-----------------------12----------------------------------------------------|
A|-------6\4------4/10------10\--8-------8\------------------------------------|
E|-----------------------------------------------------------------------------|

e|--6--------4--------6-------8------------------------------------------------|
B|----8--------6--------8-8-----8\6--------------------------------------------|
G|-----------------------------------------------------------------------------|
D|-----------------------------------------------------------------------------|
A|-------6\4------4/6-----------------4-/6-------------------------------------|
E|-----------------------------------------------------------------------------|

                                         Dm      Eb     Bb
e|--6--------4-------------------------------5---------------------------------|
B|----8--------6-------11--------10--------6------8-----66-6-------------------|
G|---------------6------------------10------------------77-7-------------------|
D|-----------------------12-----------------------------xx-x-------------------|
A|-------6\4------4/10------10\-8------8\5-----5/6------xx-x-------------------|
E|------------------------------------------------------66-6-------------------|

e|---6--------4---------6------8---4-------------------------------------------|
B|-----8--------6-4-------8------------6---------------------------------------|
G|-----------------------------------------------------------------------------|
D|-----------------------------------------------------------------------------|
A|--6------6\4---------------------------4/6-----------------------------------|
E|-----------------------------------------------------------------------------|

e|--6--------4--------6----8---------------------------------------------------|
B|----8--------6--------8----8\6---4h6-----------------------------------------|
G|-----------------------------------------------------------------------------|
D|-----------------------------------------------------------------------------|
A|-------6\4------4/6----------------------------------------------------------|
E|-----------------------------------------------------------------------------|

e|--6--------4-------------------------------5---------------------------------|
B|----8--------6-------11--------10--------6------8-----66-6-------------------|
G|----------------------------------10------------------77-7-------------------|
D|-----------------------12----------------------------------------------------|
A|-------6\4------4/10------10\8-------8\5-----6-------------------------------|
E|------------------------------------------------------66-6-------------------|


[Prechorus] What you want....

   Cm    Bb    Cm        Bb   Cm     Bb

e|-----------------------------------------------------------------------------|
B|-(8)---------------8---------8-----------------------------------------------|
G|-(8)---(7)----8-10---8--7----8-----7~----------------------------------------|
D|-(8)---(8)-8------------8------10--8~----------------------------------------|
A|-(6)---(8)-------------------------------------------------------------------|
E|-------(6)----------------6--------------------------------------------------|

or play it down here

e|--3--------------------------------------------------------------------------|
B|--4-----3--------------------------------------------------------------------|
G|--5-----3---etc.-------------------------------------------------------------|
D|--5-----3--------------------------------------------------------------------|
A|--3-----1--------------------------------------------------------------------|
E|-----------------------------------------------------------------------------|

[Chorus]


e|-----------------------------------------------------------------------------|
B|-----------------------------------------------------------------------------|
G|--17pbr15--15---12pbr10--8--8h10~--------------------------------------------|
D|------------------------------------8----8h10~-------------------------------|
A|-------------------------------------(11)------------------------------------|
E|-----------------------------------------------------------------------------|

e|-----------------------------------------------------------------------------|
B|-----------------------------------------------------------------------------|
G|---------------8-------------------------------------------------------------|
D|------6-8-8/10---10pbr~---8b10r8-6-8-6---------------------------------------|
A|--6-8----------------------------------8-6-8b10r8----------------------------|
E|-----------------------------------------------------------------------------|

e|-----------------------------------------------------------------------------|
B|-----------------------------------------------------------------------------|
G|--17pbr15--15---12pbr10--8--8h10~--------------------------------------------|
D|------------------------------------8----8h10~-------------------------------|
A|-------------------------------------(11)------------------------------------|
E|-----------------------------------------------------------------------------|

e|-----------------------------------------------------------------------------|
B|-----------------------------------------------------------------------------|
G|---------------8-------------------------------------------------------------|
D|------6-8-8/10---10pbr~---8b10r8-6-8-6---------------------------------------|
A|--6-8----------------------------------8-6-8b11r8~~~-------------------------|
E|-----------------------------------------------------------------------------|


You can play Rhyhtm Guitar in the Chorus like that

    Ab     Eb    Bbm  Eb  Fm

e|--4------6------6---6---8----------------------------------------------------|
B|--4------8------6---8---9----------------------------------------------------|
G|--5------8------6---8---10---------------------------------------------------|
D|--6------8------8---8---10---------------------------------------------------|
A|--6------6------8---6---8----------------------------------------------------|
E|--4-------------6------------------------------------------------------------|

    Ab     Eb    Bbm  

e|--4------6------6------------------------------------------------------------|
B|--4------8------6------------------------------------------------------------|
G|--5------8------6------------------------------------------------------------|
D|--6------8------8------------------------------------------------------------|
A|--6------6------8------------------------------------------------------------|
E|--4-------------6------------------------------------------------------------|

   Ab     Eb    Bbm  Eb  Fm

e|--4------6------6---6---8----------------------------------------------------|
B|--4------8------6---8---9----------------------------------------------------|
G|--5------8------6---8---10---------------------------------------------------|
D|--6------8------8---8---10---------------------------------------------------|
A|--6------6------8---6---8----------------------------------------------------|
E|--4-------------6------------------------------------------------------------|

    Ab     Eb     Bb  

e|--4------6------6------------------------------------------------------------|
B|--4------8------6------------------------------------------------------------|
G|--5------8------7------------------------------------------------------------|
D|--6------8------8------------------------------------------------------------|
A|--6------6------8------------------------------------------------------------|
E|--4-------------6------------------------------------------------------------|



[Verse]

e|--6--------4---------6-------------------------------------------------------|
B|----8--------6---------8--8--6\4/6---6---------------------------------------|
G|-----------------------------------6-----------------------------------------|
D|-----------------------------------------------------------------------------|
A|------6-6\4-----4-4/6------------------4/6-----------------------------------|
E|-----------------------------------------------------------------------------|

e|--6-----8-----------------------------------5--------------------------------|
B|------8----6\4------11----------10--------6------8-----66-6------------------|
G|-----------------------------------10------------------77-7------------------|
D|-----------------------12----------------------------------------------------|
A|---------------4/10--------10\8-------8\5-----6------------------------------|
E|-------------------------------------------------------66-6------------------|

e|---6--------4-------6---8---4------------------------------------------------|
B|-----8--------6-4-----8---------6--------------------------------------------|
G|-----------------------------------------------------------------------------|
D|-----------------------------------------------------------------------------|
A|--6------6\4----------------------4/6----------------------------------------|
E|-----------------------------------------------------------------------------|

e|--6--------4--------6---6h8p6------------------------------------------------|
B|----8--------6--------8--------8\6----6--4-----------------------------------|
G|-----------------------------------------------------------------------------|
D|-----------------------------------------------------------------------------|
A|-------6\4------4/6----------------------------------------------------------|
E|-----------------------------------------------------------------------------|

e|--6--------4-------------------------------5---------------------------------|
B|----8--------6-------11--------10--------6------8-----66-6-------------------|
G|----------------------------------10------------------77-7-------------------|
D|-----------------------12----------------------------------------------------|
A|-------6\4------4/10------10\8-------8\5-----5/6-----------------------------|
E|------------------------------------------------------66-6-------------------|


[Prechorus] What you want....


   Cm    Bb    Cm        Bb   Cm     Bb

e|-----------------------------------------------------------------------------|
B|-(8)---------------8---------8-----------------------------------------------|
G|-(8)---(7)----8-10---8--7----8-----7~----------------------------------------|
D|-(8)---(8)-8------------8------10--8~----------------------------------------|
A|-(6)---(8)-------------------------------------------------------------------|
E|-------(6)----------------6--------------------------------------------------|


[Chorus]

e|-----------------------------------------------------------------------------|
B|-----------------------------------------------------------------------------|
G|--17pbr15--15---12pbr10--8--8h10~--------------------------------------------|
D|------------------------------------8----8h10~-------------------------------|
A|-------------------------------------(11)------------------------------------|
E|-----------------------------------------------------------------------------|

e|-----------------------------------------------------------------------------|
B|-----------------------------------------------------------------------------|
G|---------------8-------------------------------------------------------------|
D|------6-8-8/10---10pbr~---8b10r8-6-8-6---------------------------------------|
A|--6-8----------------------------------8-6-8b10r8----------------------------|
E|-----------------------------------------------------------------------------|

e|-----------------------------------------------------------------------------|
B|-----------------------------------------------------------------------------|
G|--17pbr15--15---12pbr10--8--8h10~--------------------------------------------|
D|------------------------------------8----8h10~-------------------------------|
A|-------------------------------------(11)------------------------------------|
E|-----------------------------------------------------------------------------|

e|-----------------------------------------------------------------------------|
B|-----------------------------------------------------------------------------|
G|---------------8-------------------------------------------------------------|
D|------6-8-8/10---10pbr~---8b10r8-6-8-6---------------------------------------|
A|--6-8----------------------------------8-6-8b11r8~~~-------------------------|
E|-----------------------------------------------------------------------------|


Rhythm Guitar

   Ab     Eb    Bbm  Eb  Fm

e|--4------6------6---6---8----------------------------------------------------|
B|--4------8------6---8---9----------------------------------------------------|
G|--5------8------6---8---10---------------------------------------------------|
D|--6------8------8---8---10---------------------------------------------------|
A|--6------6------8---6---8----------------------------------------------------|
E|--4-------------6------------------------------------------------------------|

    Ab     Eb    Bbm  

e|--4------6------6------------------------------------------------------------|
B|--4------8------6------------------------------------------------------------|
G|--5------8------6------------------------------------------------------------|
D|--6------8------8------------------------------------------------------------|
A|--6------6------8------------------------------------------------------------|
E|--4-------------6------------------------------------------------------------|

   Ab     Eb    Bbm  Eb  Fm

e|--4------6------6---6---8----------------------------------------------------|
B|--4------8------6---8---9----------------------------------------------------|
G|--5------8------6---8---10---------------------------------------------------|
D|--6------8------8---8---10---------------------------------------------------|
A|--6------6------8---6---8----------------------------------------------------|
E|--4-------------6------------------------------------------------------------|


   Ab     Eb    Bbm  Eb  Fm  Cm

e|--4------6------6---6---8----------------------------------------------------|
B|--4------8------6---8---9---8------------------------------------------------|
G|--5------8------6---8---10--8------------------------------------------------|
D|--6------8------8---8---10--10-----------------------------------------------|
A|--6------6------8---6---8---10-----------------------------------------------|
E|--4-------------6-----------8------------------------------------------------|

[Postchorus]

   Db         Fm     Eb       Db

e|-----------------------------------------------------------------------------|
B|-----------------------------------------------------------------------------|
G|-----------------------------------------------------------------------------|
D|-----------------------------------------------------------------------------|
A|-----------------------------------------------------------------------------|
E|--9---9b11r9-8--8--6--6b8-6-4------------------------------------------------|

   Ab        Eb             Bb                

e|-----------------------------------------------------------------------------|
B|-----------------------------------------------------------------------------|
G|---------------8------------------------8pb10r8~-----------------------------|
D|------6-8-8b10---10br8~----8b10r8-6-8-6--------------------------------------|
A|--6-8------------------------------------------------------------------------|
E|-----------------------------------------------------------------------------|


[Outro]

e|-----------3-----------5h6-----------------------5---------------------------|
B|-------3h4---4-------------8-------------6-----------8-----------------------|
G|---------------3-----7-------7-------7-------7-------8---8------8------------|
D|-----5----------(5)5-----------5-0-----7-------7-----8----------8------------|
A|---6-------------------------------------------------------9/10---10\8-------|
E|-----------------------------------6--------------(1)------------------------|

                                                                    let ring

e|--------------------------------------------11--------------11----10---------|
B|-------------6-----------------11-------11--13---13---------------11-11------|
G|-(7)---7h8p7-8p7------------------12--------12--------12----------10---------|
D|-(8)-8-8-----8----8/10------12-------12-----10------------10-----------------|
A|-(8)-------------------8/10--------------------------------------------------|
E|-(6)-------------------------------------------------------------------------|



************************************

| x    Dead note
| (n)  Ghost note
| h    Hammer-on
| p    Pull-off
| r    Release
| b    Bend
| br   Bend release
| pb   Pre-bend
| pbr  Pre-bend release
| /    Slide up
| \    Slide down
| ~    Vibrato

************************************

            
            
Suggest correction
Creating personal tab
Creating personal tab
You can edit any tab online and save it as your Personal.

You can edit, replace or remove any tab part or add personal notes – all changes will be seen only by you.

Personal tabs can be accessed anytime from any device, even offline.
Learn more »
comments
print report bad tab
2 comments total.
+4 reply
Gontier_Fanboy1 10 Jun 23, 2016 04:00 PM

sounds very good so i gave 5 stars

+2 reply
thejako 77 Jun 25, 2016 05:45 AM

yeah was a lot of work but also a pleasure

guest
You may want to rate the tab now too:
select rating
Wanna post a correction for this tab? Suggest correction