Oops, an error
Loading. Please wait.

The Longest Wave tab

version 3
version 3

Whole song

Interactive

Video

2,101 views 6 this week
1 commentread comment
1 2 3 4 5
x 3
add to favorites
×
Save as Personal and add changes to this tab that will be seen only by you. Learn more ›
×
You can save this tab as Personal to edit and correct it or add notes. All changes will be seen only by you. Learn more »
launch autoscroll
font size
0
reset
how to read this tab
guitar tuner
edit
Autoscroll
slow
fast
+/-
esc
set tempo
stop
Author
Difficulty
[Intro]


e|-----------3-----------5h6----------------------5------------------------|
B|-------3h4---4-------------8--------------6------------------------------|
G|---------------3-----7-------7--------7-----7-------8--------8h10p8------|
D|-----5----------5--5-----------5--------8-----8-----8---------------10\8-|
A|---6-----------------------------5----------------6-----8/10-------------|
E|-------------------------------------6-----------------------------------|

e|--------------------------------------11-------------11--10-------------|
B|----------------------------11--------13---13-----13--------11----------|
G|------8p7--8p7-----------------12-----12-------12--------------10-------|
D|----8-8--------8/10-------12------12------------------------------------|
A|---------------------8/10-----------------------------------------------|
E|--6-----------------------------------------------------------------10/0|


[Verse]

e|------------------------------------------------------------------------|
B|-11-------9---------11--------9--------11--------9----------------------|
G|---12------10---------12-------10--------12-------10------15-----14-----|
D|------------------------------------------------------------17-----15---|
A|------------------------------------------------------------------------|
E|-----11/9------9/11------11/9-----9/11-------11/9----9/15---------------|

e|------------------------------------------------------------------------|
B|-11-------9--------11------11h13-----------11--------9------------------|
G|---12------10--------12-12-------13/11-------12-------10--15----14------|
D|------------------------------------------------------------------15----|
A|------------------------------------------------------------17----------|
E|-----11/9----9/11----------------------9/11-----11/9--------------------|

e|------------------------------------------------------------------------|
B|----10---------------11-------9---------11--13-----9--------11-------9--|
G|--10------12---7-7-----12------10--8/12---12---------10--------12-----10|
D|----------13---8-8------------------------------------------------------|
A|------------------------------------------------------------------------|
E|--------11---------------11/9--------------------------9/11------11/9---|

e|------------------------------------------------------------------------|
B|-----11--11h13--------------11------9------------------10---------------|
G|-------12------12/10--8h10----12-----10---15---14----10-------12---7-7--|
D|-------------------------------------------------15-----------13---8-8--|
A|--------------------------------------------17--------------------------|
E|-9/11---------------------------11/9------------------------11----------|


[Pre-Chorus]

e|------------------------------------------------------------------------|
B|-8----------6----------------------6-------8-------6--6--6--6-----------|
G|-8----------7-------8---10--10/12--7-------8-------7--7--7--7-----------|
D|-10---------8-------10-------------8-------10-10---8--8--8--8-----------|
A|-10---------8-------10-------------8-------10------8--8--8--8-----------|
E|-8----------6-------8--------------6-------8-------6--6--6--6-----------|


[Chorus]

e|-------------------------------------------------------------------------------|
B|-------------------------------------------------------------------------------|
G|--15b17--15--------------------------------------------------------------------|
D|------------15b17--13---13h15-------------------------------------13-----------|
A|-----------------------------------13-13h15-----------11--13--15-----13b15r13--|
E|-----------------------------------------------11--13--------------------------|

e|-------------------------------------------------------------------------------|
B|-------------------------------------------------------------------------------|
G|----------------------------------------15b17--15------------------------------|
D|---------------------------------------------------15b17--13--13h15------------|
A|-13/15--13/11---13p11-----------------------------------------------13--13h15--|
E|----------------------13--11b12------------------------------------------------|

e|-------------------------------------------------------------------------------|
B|-------------------------------------------------------------------------------|
G|-------------------------------------------------------------------------------|
D|---------------------13--------------------------------------------------------|
A|---------11--13--15-----13b15r13---13/15--13/11--13p11-------------------------|
E|-11--13------------------------------------------------13--11b12---------------|


[Verse]


e|------------------------------------------------------------------------------|
B|-11-------9---------11---------------------------11--11h13--------------------|
G|---12------10---------12--12/10--8/10---10---------12----------------15---13--|
D|-----------------------------------------------------------12/10------------14|
A|-----------------------------------------------------------------------17-----|
E|-----11/9------9/11-------------------9-----9/11----------------9/15----------|

e|--------------------------------------------------------------------------------|
B|----10----------------11--------9-------11---13---9---(9)---11-------9-------11-|
G|-10-------12--7-7-------12-------10-------12-------10---------12------10------12|
D|----------13--8-8---------------------------------------------------------------|
A|--------------------------------------------------------------------------------|
E|--------11---------------11/9------9/11--------------------------11/9----9/11---|

e|------------------------------------------------------------------------------|
B|-11h13p11---------------11-----13------------15----------------10-------------|
G|----------12/10 -10--8----12------12/10---------------14-----10----12-7-7-----|
D|------------------------------------------------17------15---------13-8-8-----|
A|------------------------------------------------------------------------------|
E|-----------------------------11---------9/15----------------------11----------|


[Pre-Chorus]

e|------------------------------------------------------------------------|
B|-8----------6----------------------6-------8-----6--6--6--6-------------|
G|-8----------7-------8---10--10/12--7-------8-----7--7--7--7-------------|
D|-10---------8----------------------8-------10----8--8--8--8-------------|
A|-10---------8----------------------8-------10----8--8--8--8-------------|
E|-8----------6----------------------6-------8-----6--6--6--6-------------|


[Chorus]

e|-------------------------------------------------------------------------------|
B|-------------------------------------------------------------------------------|
G|--15b17--15--------------------------------------------------------------------|
D|------------15b17--13---13h15-------------------------------------13-----------|
A|-----------------------------------13-13h15-----------11--13--15-----13b15r13--|
E|-----------------------------------------------11--13--------------------------|

e|-------------------------------------------------------------------------------|
B|-------------------------------------------------------------------------------|
G|----------------------------------------15b17--15------------------------------|
D|---------------------------------------------------15b17--13--13h15------------|
A|-13/15--13/11---13p11-----------------------------------------------13--15-----|
E|----------------------13--11b12------------------------------------------------|

e|-------------------------------------------------------------------------------|
B|-------------------------------------------------------------------------------|
G|-------------------------------------------------------------------------------|
D|---------------------13--------------------------------------------------------|
A|---------11--13--15-----13b15r13---13/15--13/11--13p11-------------------------|
E|-11--13------------------------------------------------13--11b12---------------|

e|-------------------------------------------------------------------------------|
B|-------------------------------------------------------------------------------|
G|-------------------------------------------------------------------------------|
D|--------------------------------------------------------13---------------------|
A|-------------------------------------------11--13--15----13b15r13-13/15-13/11--|
E|-11/9---9---8--8b9--6--6h8--6s4--4--11--13-------------------------------------|
x
e|-------------------------------------------------------------------------------|
B|-------------------------------------------------------------------------------|
G|-------------------------------------------------------------------------------|
D|----11-13b15r13----------------------------------------------------------------|
A|-13----------------------------------------------------------------------------|
E|-------------------------------------------------------------------------------|


[Outro]

e|-----------3-----------5h6----------------------5-------------------------|
B|-------3h4---4-------------8--------------6---------8---------------------|
G|---------------3-----7-------7--------7-----7-------8-----------8---------|
D|-----5----------5--5-----------5--------8-----8-----8---------------------|
A|---6-----------------------------5------------------6---6--8/10---10\8----|
E|-------------------------------------6------------------------------------|

e|-----------------------------------------11-------------11--10------------|
B|----------------------------11----11-----13---13-----13--------11---------|
G|------7h8p7--8p7---------------12--------12-------12----------------------|
D|----8-8----------8/10-----12----------------------------------------------|
A|----------------------8/10------------------------------------------------|
E|--6-----------------------------------------------------------------------|



************************************

| h    Hammer-on
| p    Pull-off
| r    Release
| b    Bend
| /    Slide up
| \    Slide down

************************************

            
            
Suggest correction
Creating personal tab
Creating personal tab
You can edit any tab online and save it as your Personal.

You can edit, replace or remove any tab part or add personal notes – all changes will be seen only by you.

Personal tabs can be accessed anytime from any device, even offline.
Learn more »
Give kudos to tab author, rate the tab!
1 2 3 4 5
comments
print report bad tab
1 comment total.
0 reply
Dimitris_RHCP 82 Jul 09, 2016 10:25 AM

Well done!

guest
You may want to rate the tab now too:
select rating
Wanna post a correction for this tab? Suggest correction