Oops, an error
Loading. Please wait.

The Zephyr Song Tab

version 1
271,077 views 480 this week
26 commentsread comments
1 2 3 4 5
x 101
add to favorites
launch autoscroll
font size
0
reset
how to read this tab
guitar tuner
Autoscroll
slow
fast
+/-
esc
set tempo
stop
Help us to improve Ultimate-Guitar.com Take our survey!
×
[Intro]
 
                         
e|------3-----------1-----------------------------------------|
B|----1------------0-------------0------------1---------------|
G|--2------------0-------------0------------2-----------------|
D|---------------------------2------------3-------------------|
A|------------------------------------------------------------|
E|------------------------------------------------------------|

e|------0-------------------------------------0---------------|
B|----1------------0-3-----------0------------1---------------|
G|--2------------0-------------0------------2-----------------|
D|---------------------------2------------3-------------------|
A|------------------------------------------------------------|
E|------------------------------------------------------------|

 
[Verse]

 Part 1                         
e|------0-----3--1--0--------------1-0------------------------|
B|----1---1------------------0-3-0-----3----------------------|
G|--2----------------------0----------------------------------|
D|------------------------------------------------------------|
A|------------------------------------------------------------|
E|------------------------------------------------------------| 
                                            Second time:
E|-------------------|---------------------|------------------|
B|------0----3-1-0---|-----1--3/5\3--1-0-1-|-----1-3/5\3-1----|
G|----0---0----------|---2-----------------|---2--------------|
D|--2----------------|-3-------------------|-3----------------|
A|-------------------|---------------------|------------------|
E|-------------------|---------------------|------------------|

 Part 2
e|------0----3-5-0------------1-0-----------------------------|
B|----1---1-------------0-3-0-----3---------------------------|
G|--2-----------------0---------------------------------------|
D|------------------------------------------------------------|
A|------------------------------------------------------------|
E|------------------------------------------------------------|

e|------------------------------------------------------------|
B|------0----3-1-0--------1---0-1-----------------------------|
G|----0---0-------------2---2---------------------------------|
D|--2-----------------3---------------------------------------|
A|------------------------------------------------------------|
E|------------------------------------------------------------|


[Chorus 1]

e||---------------------------------------------------------|
B|---------------------------------------------------------|
G|---------------------------------------------------------|
D|----4----7----4----7---4---------9----7----7----7--9--7--|
A|--5----5----5----5----5--5----7----7----7------7--7--7---|
E|---------------------------------------------------------|


[Chorus Outro]

e|------0-----3--1--0--------------1-0------------------------|
B|----1---1------------------0-3-0-----3----------------------|
G|--2----------------------0----------------------------------|
D|------------------------------------------------------------|
A|------------------------------------------------------------|
E|------------------------------------------------------------| 
                    
e|------------------------------------------------------------|
B|------0----3-1-0--------1--3/5\3--1-------------------------|
G|----0---0-------------2-------------------------------------|
D|--2-----------------3---------------------------------------|
A|------------------------------------------------------------|
E|------------------------------------------------------------|


[Chorus 2]

e|------------------------------------------------------------|
B|------------------------------------------------------------|
G|------------------------------------------------------------|
D|----4----7----4----7----4---------9-----7-----7----797---7--|
A|--5----5----5-----5----5--5----7-----7-----7-----7-----7----|
E|------------------------------------------------------------|

e|--------------------------------------------------------|
B|--------------------------------------------------------|
G|--------------------------------------------------------|
D|----4----7----4----7----4---------9----7----7---797-7---|
A|--5----5----5----5----5---5----7----7----7----7-------7-|
E|--------------------------------------------------------|

e|-------------------------------------------------------|
B|-------------------------------------------------------|
G|-------------------------------------------------------|
D|----4---7---4----7---54--------9----7----7----797---7--|
A|--5---5---5----5--------5----7----7----7----7-----7----|
E|-------------------------------------------------------|

e|-----------------------------------------------------|
B|-----------------------------------------------------|
G|-----------------------------------------------------|
D|----4---7---7---7---54-------9----7----7----797---7--|
A|--5---5---5---5-------5----7----7----7----7-----7----|
E|-----------------------------------------------------|


Alternatively, you can just strum, D G A on the chorus


[Solo]

D - A - G played underneath

e|--12-10-12-12---12---10---12--------------------------------|
B|-----------------------------12b13r12----10-----------------|
G|------------------------------------------------------------|
D|------------------------------------------------------------|
A|------------------------------------------------------------|
E|------------------------------------------------------------|

e|--10-8-10-10--10--10---12-----------------------------------|
B|---------------------------12b13r12----10-------------------|
G|------------------------------------------------------------|
D|------------------------------------------------------------|
A|------------------------------------------------------------|
E|------------------------------------------------------------|

e|--12-10-12--12---------10---12------------------------------|
B|-------------------------------12b13r12----10---------------|
G|------------------------------------------------------------|
D|------------------------------------------------------------|
A|------------------------------------------------------------|
E|------------------------------------------------------------|

e|--10-8-10-10--10 8-10--12-----------------------------------|
B|---------------------------12b13r12--10---------------------|
G|----------------------------------------9-------------------|
D|------------------------------------------------------------|
A|------------------------------------------------------------|
E|------------------------------------------------------------|


[Outro]

D - G - A played underneath

e|--10-------10-------10------10-----15--15-15--17--17-17-----|
B|-----10-------10-------10---10-----15--15-15--17--17-17-----|
G|--------11-------11---------11------------------------------|
D|------------------------------------------------------------|
A|------------------------------------------------------------|
E|------------------------------------------------------------|


[Ending]

e|--2---------------------------------------------------------|
B|--3---------------------------------------------------------|
G|--2---------------------------------------------------------|
D|--0---------------------------------------------------------|
A|--0---------------------------------------------------------|
E|------------------------------------------------------------|


LYRICS

Can I get your hand to write on 
just a piece of leg to bite on 
what a night to fly my kite on 
do you want to flash a light on 
take a look it's on display ... for you 
coming down, no not today 

Did you meet your fortune teller 
get it off with no propeller 
do it up it's on with Stella 
what a way to finally smell her 
picking up but not too strong ... for you 
take a piece and pass it on 

Fly away on my zephyr 
I feel it more than ever 
and in this perfect weather 
we'll find a place together 
fly on... my wind 

Rebel and liberator 
find a way to be a skater 
rev it up to levitate her 
super friendly aviator 
take a look it's on display 
for you ... coming down no not today 

In the water where I center my emotion 
all the world can pass me by 
fly away on my Zephyr 
we'll find a place together 

In the water where I center my emotion 
all the world can pass me by 
fly away on my Zephyr 
we're going to live forever


Well the order is this:

[Intro]
Verse    x2
Chorus1    x2
Chorus Outro    1x
Verse    1x
Chorus2    1x
[Solo]
Chorus1   Until the end...
Ending



************************************

h : Hammer On
/ : Slide up
\ : Slide Down
b : Bend
r : Release

************************************
Suggest correction
comments
print report bad tab
26 comments total. Showing first comments.
+2 reply
harm0n20 206 Aug 30, 2004 12:00 AM

tis be a good tab! shall print this out and master thy song. i thank thee.

0 reply
ryandude 10 Nov 06, 2004 12:00 AM

its great

+1 reply
slipinkorn 60 Apr 25, 2005 12:00 AM

one of the best tabs

guest
You may want to rate the tab now too:
select rating
Wanna post a correction for this tab? Suggest correction