Oops, an error
Loading. Please wait.

The Zephyr Song Tab

version 7
120,819 views 210 this week
4 commentsread comments
1 2 3 4 5
x 13
add to favorites
launch autoscroll
font size
0
reset
how to read this tab
guitar tuner
×
Best way to learn
"The Zephyr Song"
Autoscroll
slow
fast
+/-
esc
set tempo
stop
Author
THE ZEPHYR SONG

This is my first tab so comments would be appreciated.
It's a long tab but I made it a printable width.
ENJOY!
------------------------------------------------------

[Intro]

e|----------------------------------------------|
B|--------8--------6--------0--------1----------|
G|------5--------4--------1--------2------------|
D|----7--------5--------2--------3--------------|
A|----------------------------------------------|
E|----------------------------------------------|

e|-----------------------------------0----------|
B|--------5--------3--------0--------1----------|
G|------5--------4--------1--------2------------|
D|----7--------5--------2--------3--------------|
A|----------------------------------------------|
E|----------------------------------------------|


[Verse]

e|--------------------------------------------------------------|
B|-----5---8--6-5------3---6-5-3------0---3-1-0-----1-3h5-3-1-0-|
G|---5---------------4--------------1-------------2-------------|
D|-7-----7---------5------5-------2------2------3-----3h5-------|
A|--------------------------------------------------------------|
E|--------------------------------------------------------------|

e|-----------5------------------------------0-------------------|
B|-----5---8---5------3----6-5-3------0---3---0------0-1----0-1-|
G|---5--------------4------4--------1---1---------2-------------|
D|-7-----7--------5------5--------2---------------3------3------|
A|--------------------------------------------------------------|
E|--------------------------------------------------------------|

e|---------------------------------------------------------------|
B|-----5---8--6-5-----3--6-5-3------0--3-1-0-----1-3h5-3-1-0-1-0-|
G|---5--------------4-------------1------------2-----------------|
D|-7-----7--------5-----5-------2-----2------3-------------------|
A|---------------------------------------------------------------|
E|---------------------------------------------------------------|

e|-----------5------------------------------0------------------|
B|-----5---8---5------3----6-5-3------0---3---0-----0-1----0-1-|
G|---5--------------4------4--------1---1--------2-------------|
D|-7-----7--------5------5--------2--------------3------3------|
A|-------------------------------------------------------------|
E|-------------------------------------------------------------|
                                  Hold last note and let ring


[Chorus]

     D     G           A
e|---------3-----------5--------------|
B|---7-----3-----------5--------------|
G|---7-----4-----------6--------------|
D|---7-----5-----------7--------------|
A|---5-----5-----------7--------------|
E|---------3-----------5--------------| Repeat x2


[Verse]

e|----------------------------------------------------------|
B|-----5---8--6-5-----3--6-5-3-----0---3-1-0-----1--3h5-3-1-|
G|---5--------------4------------1-------------2------------|
D|-7-----7--------5-----5------2------2------3--------------|
A|----------------------------------------------------------|
E|----------------------------------------------------------|

e|------------------------------------------------------------|
B|-----5---8--6-5-----3--6-5-3-----0---3-1-0-----1--3/5-3-1-0-|
G|---5--------------4------------1-------------2--------------|
D|-7-----7--------5-----5------2------2------3----------------|
A|------------------------------------------------------------|
E|------------------------------------------------------------|

e|-----------5------------------------------0------------------|
B|-----5---8---5------3----6-5-3------0---3---0-----0-1----0-1-|
G|---5--------------4------4--------1---1--------2-------------|
D|-7-----7--------5------5--------2--------------3------3------|
A|-------------------------------------------------------------|
E|-------------------------------------------------------------|


[Chorus]

     D     G           A
e|---------3-----------5--------------|
B|---7-----3-----------5--------------|
G|---7-----4-----------6--------------|
D|---7-----5-----------7--------------|
A|---5-----5-----------7--------------|
E|---------3-----------5--------------| Repeat


[Bridge]

     D    G    A    G  A
e|--------3----5----3--5--------|
B|---7----3----5----3--5--------|
G|---7----4----6----4--6--------|
D|---7----5----7----5--7--------|
A|---5----5----7----5--7--------|
E|--------3----5----3--5--------|


[Chorus]

     D     G           A
e|---------3-----------5--------------|
B|---7-----3-----------5--------------|
G|---7-----4-----------6--------------|
D|---7-----5-----------7--------------|
A|---5-----5-----------7--------------|
E|---------3-----------5--------------|


[Solo]

chords:  Am  G  Em  F

e|-12-10-12-12---12---10-12---------------10-8-10-10--10-x-10-|
B|--------------------------12b13b12--10----------------------|
G|------------------------------------------------------------|
D|------------------------------------------------------------|
A|------------------------------------------------------------|
E|------------------------------------------------------------|

e|-12-------------------|
B|-----12b13b12--10-----|
G|------------------(9)-| Repeat playing note in brackets
D|----------------------| second time 'round
A|----------------------|
E|----------------------|


[Bridge]

   Am    G    A   Bb
e|--5----3----5----6--------------|
B|--5----3----5----6--------------|
G|--5----4----6----7--------------|
D|--7----5----7----8--------------| Repeat
A|--7----5----7----8--------------|
E|--5----3----5----6--------------|


[Chorus]

     D     G           A
e|---------3-----------5--------------|
B|---7-----3-----------5--------------|
G|---7-----4-----------6--------------|
D|---7-----5-----------7--------------|
A|---5-----5-----------7--------------|
E|---------3-----------5--------------| Repeat


[Bridge]

   Am    G    A   Bb
e|--5----3----5----6--------------|
B|--5----3----5----6--------------|
G|--5----4----6----7--------------|
D|--7----5----7----8--------------| Repeat
A|--7----5----7----8--------------|
E|--5----3----5----6--------------|


[Chorus]

     D     G           A
e|---------3-----------5--------------|
B|---7-----3-----------5--------------|
G|---7-----4-----------6--------------|
D|---7-----5-----------7--------------|
A|---5-----5-----------7--------------|
E|---------3-----------5--------------|


[Outro]
(played over chorus progression)

e|-(14)-------14-  -------15-  -------17-|
B|---------15----  ----15----  ----17----|
G|------14-------  -16-------  -18-------|  x2
D|---------------------------------------|
A|---------------------------------------|
E|---------------------------------------|


(14)=play first time

e|-------14-  -------15-  ------14--  -------15-|
B|----15----  ----15----  ---15-----  ----15----|
G|-14-------  -14-------  -14-------  -16-------|
D|----------------------------------------------|
A|----------------------------------------------|
E|----------------------------------------------|


e|-------17-|                          e|-17-15-17--17-17-|
B|----17----|    repeat first line     B|-----------15-15-|
G|-18-------|x2  and second time play: G|-----------------|
D|----------|                          D|-----------------|
A|----------|                          A|-----------------|
E|----------|                          E|-----------------|   


           e|-5-|
           B|-7-|
           G|-6-|
last chord D|-7-|
           A|-5-|
           E|---|
Suggest correction
comments
print report bad tab
4 comments total. Showing first comments.
0 reply
Roadkill_1 80 Mar 02, 2004 07:00 PM

Hey, I think you're right! I just went with the basic riff I was told and is in all the other tabs, but it seems it was wrong.

Thanks!

0 reply
Fozz! 20 Apr 15, 2004 08:00 PM

I really like this tab out of all that are up. Seems to be the only one which has the right intro and chorus...quite important that!

*gives tab 5 stars*

0 reply
LastRockShow 191 Jun 18, 2004 08:00 PM

awesome stuff, i was havin trouble with that first part of the intro (thanks for showing the real way UG STRANGER) in this tab, but everything else is awesome.

guest
You may want to rate the tab now too:
select rating
Wanna post a correction for this tab? Suggest correction