Oops, an error
Loading. Please wait.

This Is The Kitt Tab

7,628 views 54 this week
2 commentsread comments
1 2 3 4 5
excellent!
x 10
add to favorites
launch autoscroll
font size
0
reset
how to read this tab
guitar tuner
Autoscroll
slow
fast
+/-
esc
set tempo
stop
Help us to improve Ultimate-Guitar.com Take our survey!
×
Main riff:

e|--------------------------------------------------------------------------|
B|---------------3--2-------------------------------------3-x-x-------------|
G|---------------2--2------2----------5-x-x-5---x-x-2-----2-x-x-2-----------|
D|-------------------------2----------4-x-x-4---x-x-2h4-4-2-x-x-2h4---------|
A|---------------------2/4--------------------------------------------------|
E|-17\\\\\\2--2---------------x-x-3/4---x-x-4---x-x-------------------------|

e|--------------------------------------------------------------------------|
B|---------------3--2-----------------------------------------3-x-x---------|
G|---------------2--2------2------5b6r5---x-x-5-5---x-x-2-----2-x-x-2-------|
D|-------------------------2------4b5r4---x-x-4-4---x-x-2h4-4-2-x-x-2h4-----|
A|---------------------2/4--------------------------------------------------|
E|---------2--2---------------x-x-4-------x-x-4-4---x-x---------------------|

************************************
| /   slide up
| \   slide down
| H   hammer-on
| x   Mute note
| B   Bend
| r   Release bend
| wd  Whammy bend down (press whammy bar down)
************************************

Song:
(Play main riff throughout verses)

This is the kitt I can't compare
A delicate new arrival
Check the commute I do declare
Let's sing a new revival

Chemical circus at the pub
Mentally she's preparted
Cut me a check I'll cut your rug
Later we'll get bombarded

Chorus:
                 A
'Cause everybody knows
                    C#7
The game is full of highs and lows
          D
Like your mother said
           F
Girl, your father is dead
           A
Everybody knows
                     C#7
That life is full of highs and lows
         D
Is there always red
         F
In your wedding bed
Everybody knows

(back to riff)
Officer, please, I just got there
Traveled from door to door
Haven't you seen my girlfriends hair
What are we looking for

Chorus

Solo:
e|--------------------------------------------------------------------------|
B|--------------------------------------------------------------------------|
G|------2----------2----------2----------2------2------2--5-----------------|
D|--3h4--------3h4--------3h4--------3h4----3h4----3h4----4b6--3b4----------|
A|--------------------------------------------------------------------------|
E|--------------------------------------------------------------------------|

e|---------------------------------------10--12--13--14b--------------------|
B|---------------------------10--12--14-------------------------------------|
G|---------------10--11--13-------------------------------------------------|
D|--4wd---------------------------------------------------------------------|
A|--------------------------------------------------------------------------|
E|--------------------------------------------------------------------------|

2nd guitar, after whammy bend
e|---------------------------12-----13-----14-----15----16-----17-----18-19b|
B|------------12--------13/14--14/15--15/16--16/17--17/18--18/19--19/20--17b|
G|-11p10-9-10----9-9-12-----------------------------------------------------|
D|--------------------------------------------------------------------------|
A|--------------------------------------------------------------------------|
E|--------------------------------------------------------------------------|

(no guitar here)
This is the kitt I can't compare
A delicate new arrival
Check the commute I do declare
I think we have our bible

Chorus
               A
Take me to the shore
                  C#7
Show me what it's for
         D
Is there always red
        F
In your wedding bed
          A
Everybody knows
                     C#7
That life is full of cons and pros
          D
Like your mother said
           F
Girl, your father is dead
          A
Everybody knows
Suggest correction
comments
print report bad tab
2 comments total.
+1 reply
nico_frusciante 72 wrote on August 4 2013, 11:39 pm

Good job men ! the intro and the solo are really good

0 reply
redhotsexmagic 10 wrote on June 10 2014, 09:11 pm

nailed it!

guest
You may want to rate the tab now too:
select rating
Please do not post tabs as comments. Select "correction" instead!