Oops, an error
Loading. Please wait.

This Is The Place Bass

version 1
version 1

Whole song

27,019 views 36 this week
2 commentsread comments
1 2 3 4 5
x 20
add to favorites
launch autoscroll
font size
0
reset
guitar tuner
×
Best way to learn
"This Is The Place"
Autoscroll
slow
fast
+/-
esc
set tempo
stop
Title: This Is the Place
Artist: Red Hot Chili Peppers
Album: By the Way
Instrument: Electric Bass
Tabbed by: Leonardo Tornambè
Tuning: Standard (E A D G)

<<:----------------------------------------------------------------:>>

G|----------5-5-|----------------|-5-5-----------------------------||
D|-7-7-7--------|-5-5-5---3-3-3--|------7-7-7---------7-7--3-3-3---||
A|--------------|----------------|-------------5-5-5---------------||
E|--------------|----------------|---------------------------------||

G|--------------|----------------|---------------------------------||
D|--------5-5---|----------------|---------------------------------||
A|-3-3-3--------|-5-5-5----------|---------------------------------||
E|--------------|----------------|---------------------------------||

Enjoy and Good Luck!
Suggest correction
comments
print report bad tab
2 comments total.
0 reply
HateFizt 73 Jun 13, 2007 03:59 PM

You Rock :D

0 reply
sward89 10 Oct 20, 2011 02:46 AM

waaaaaaaaaaaaaaaayyyyyyyy

guest
You may want to rate the tab now too:
select rating
Wanna post a correction for this tab? Suggest correction