Oops, an error
Loading. Please wait.

This Ticonderoga tab

version 2
version 2

Whole song

1,570 views 1 this week
4 commentsread comments
1 2 3 4 5
x 4
add to favorites
×
Save as Personal and add changes to this tab that will be seen only by you. Learn more ›
×
You can save this tab as Personal to edit and correct it or add notes. All changes will be seen only by you. Learn more »
launch autoscroll
font size
0
reset
how to read this tab
guitar tuner
edit
Autoscroll
slow
fast
+/-
esc
set tempo
stop
Author
Difficulty
Red Hot Chili Peppers, This Ticonderoga [Tab]

[1st Part] Rhythm Gtr.

E---8--8--8--8-------6-6-6-6-------8--8--8--8----------------|
A--10-10-10-10-(x4)--8-8-8-8-(x2)-10-10-10-10-(x2)-----------|
D--10-10-10-10-------8-8-8-8------10-10-10-10----------------|
G------------------------------------------------------------|
B------------------------------------------------------------|
E------------------------------------------------------------|


[2nd Part] (0:22 sec)

E------------------------------------------------|
A------------------------------------------------|
D------------------------------------------------|
G------------------------------------------------|
B---14b16-13b15--11b13-(x2)----------------------|
E---11----10-----8-------------------------------|


[3rd Part] Rhythm Gtr. (ver 2)

E---8--8--8--8-------6-6-6-6-------8--8--8--8----------------------------------------------|
A--10-10-10-10-(x4)--8-8-8-8-(x2)-10-10-10-10-(x2)-----------------------------------------|
D--10-10-10-10-------8-8-8-8------10-10-10-10----------------------------------------------|
G------------------------------------------------------------        Add This: -----10b12--|
B------------------------------------------------------------                  -----8------|
E------------------------------------------------------------------------------------------|


[4th Part] (01:07 Min)

                                                                  (I wanna be next to you)
E-------------------------------------------------------------------------------------------------|
A-------------------------------------------------------------------------------------------------|
D------------13/15--------------------------------------------------------------------------------|
G------------------13-15-15b17----13-15-15b17------13-16--(x2)---------12-13-12-10-12-------------|
B---16b18----------------13-------------13------15------------------------------------------------|
E---13--------------------------------------------------------------------------------------------|


[5th Part] (4:03 min)

E----------------------------------------------------------------------------|
A---------------------------------------------------6---5-6-5--3-------------|
D-------------------12-13-12-10-12------5-6-5-3-5-3---3----------------------|
G---12-13-12-10-12-----------------------------------------------------------|
B----------------------------------------------------------------------------|
E----------------------------------------------------------------------------|



************************************

| b  Bend
| /  Slide up

************************************

            
            
Suggest correction
Creating personal tab
Creating personal tab
You can edit any tab online and save it as your Personal.

You can edit, replace or remove any tab part or add personal notes – all changes will be seen only by you.

Personal tabs can be accessed anytime from any device, even offline.
Learn more »
comments
print report bad tab
4 comments total. Showing first comments.
0 reply
robotfrom94 314 Jun 19, 2016 11:45 AM

Aside from the tab being upside down, it's very good!

0 reply
juanirigane 54 Jun 24, 2016 02:51 PM

OMG hahahah i didn't even notice, sorry bro!

+4 reply
shaanyboy5000 10 Jun 24, 2016 12:25 PM

He doesn't know how to wire tab its wrong. It is both inverted and not very accurate at all. Very disappointing dont use this for reference.

guest
You may want to rate the tab now too:
select rating
Wanna post a correction for this tab? Suggest correction