Oops, an error
Loading. Please wait.

Throw Away Your Television Bass Tab

version 4
version 4

Whole song

65,540 views 87 this week
16 commentsread comments
1 2 3 4 5
excellent!
x 44
add to favorites
launch autoscroll
font size
0
reset
guitar tuner
Autoscroll
slow
fast
+/-
esc
set tempo
stop
Help us to improve Ultimate-Guitar.com Take our survey!
×
Author
Difficulty
denniej 244
advanced
Artist: Red Hot Chili Peppers
Sond: Throw away your television
tabbed By: Denniejj

Intro
G|---------------------------|---------------------------|---------------------------|---------------------------|
D|---------------------------|---------------------------|---------------------------|---------------------------|
A|---------------------------|------7----7-7--7--7-------|---------------------------|------7----7-7--7--7-------|
E|-5-5--5--x-5-5---55-0-5--3-|-0-0-----0-----------0-8-8-|-5-5--5--x-5-5---55-0-5--3-|-0-0-----0-----------0-8-8-|

G|---------------------------|---------------------------|---------------------------|---------------------------|
D|---------------------------|---------------------------|---------------------------|---------------------------|
A|---------------------------|------7----7-7--7--7-------|---------------------------|------7----7-7--7--7-------|
E|-5-5--5--x-5-5---55-0-5--3-|-0-0-----0-----------0-8-8-|-5-5--5--x-5-5---55-0-5--3-|-0-0-----0-----------0-8-8-|

Verse
G|---------------------------|---------------------------|---------------------------|---------------------------|
D|---------------------------|---------------------------|---------------------------|---------------------------|
A|---------------------------|------7----7-7--7--7-------|---------------------------|------7----7-7--7--7-------|
E|-5-5--5--x-5-5---55-0-5--3-|-0-0-----0-----------0-8-8-|-5-5--5--x-5-5---55-0-5--3-|-0-0-----0-----------0-8-8-|

G|---------------------------|---------------------------|---------------------------|---------------------------|
D|---------------------------|---------------------------|---------------------------|---------------------------|
A|---------------------------|------7----7-7--7--7-------|---------------------------|------7----7-7--7--7-------|
E|-5-5--5--x-5-5---55-0-5--3-|-0-0-----0-----------0-8-8-|-5-5--5--x-5-5---55-0-5--3-|-0-0-----0-----------0-8-8-|

G|---------------------------|---------------------------|---------------------------|---------------------------|
D|---------------------------|---------------------------|---------------------------|---------------------------|
A|---------------------------|------7----7-7--7--7-------|---------------------------|------7----7-7--7--7-------|
E|-5-5--5--x-5-5---55-0-5--3-|-0-0-----0-----------0-8-8-|-5-5--5--x-5-5---55-0-5--3-|-0-0-----0-----------0-8-8-|

G|---------------------------|---------------------------|---------------------------|---------------------------|
D|---------------------------|---------------------------|---------------------------|---------------------------|
A|---------------------------|------7----7-7--7--7-------|---------------------------|------7----7-7--7--7-------|
E|-5-5--5--x-5-5---55-0-5--3-|-0-0-----0-----------0-8-8-|-5-5--5--x-5-5---55-0-5--3-|-0-0-----0-----------0-8-8-|

G|---------------------------|---------------------------|---------------------------|---------------------------|
D|---------------------------|---------------------------|---------------------------|---------------------------|
A|---------------------------|------7----7-7--7--7-------|---------------------------|------7----7-7--7--7-------|
E|-5-5--5--x-5-5---55-0-5--3-|-0-0-----0-----------0-8-8-|-5-5--5--x-5-5---55-0-5--3-|-0-0-----0-----------0-8-8-|

G|---------------------------|---------------------------|---------------------------|---------------------------|
D|---------------------------|---------------------------|---------------------------|---------------------------|
A|---------------------------|------7----7-7--7--7-------|---------------------------|------7----7-7--7--7-------|
E|-5-5--5--x-5-5---55-0-5--3-|-0-0-----0-----------0-8-8-|-5-5--5--x-5-5---55-0-5--3-|-0-0-----0-----------0-8-8-|

G|---------------------------|---------------------------|---------------------------|---------------------------|
D|---------------------------|---------------------------|---------------------------|---------------------------|
A|---------------------------|------7----7-7--7--7-------|---------------------------|------7----7-7--7--7-------|
E|-5-5--5--x-5-5---55-0-5--3-|-0-0-----0-----------0-8-8-|-5-5--5--x-5-5---55-0-5--3-|-0-0-----0-----------0-8-8-|

G|---------------------------|---------------------------|---------------------------|---------------------------|
D|---------------------------|---------------------------|---------------------------|---------------------------|
A|---------------------------|------7----7-7--7--7-------|---------------------------|------7----7-7--7--7-------|
E|-5-5--5--x-5-5---55-0-5--3-|-0-0-----0-----------0-8-8-|-5-5--5--x-5-5---55-0-5--3-|-0-0-----0-----------0-8-8-|

Chorus
G|-14-----14-----14----|-16---------12-12-|-14-----14-----14----|-16-------12-12-|-14-----14-----14----|
D|----14------14----14-|----14--14--------|----14------14----14-|----14-14-------|----14------14----14-|
A|---------------------|------------------|---------------------|----------------|---------------------|
E|---------------------|------------------|---------------------|----------------|---------------------|

G|-16---------12-12-|-12-----12-----12-|-10-------10-------10----|
D|----14--14--------|----12------12----|----10-10----10-10----10-|
A|------------------|------------------|-------------------------|
E|------------------|------------------|-------------------------|

Interlude
G|---------------------------|---------------------------|---------------------------|---------------------------|
D|---------------------------|---------------------------|---------------------------|---------------------------|
A|---------------------------|------7----7-7--7--7-------|---------------------------|------7----7-7--7--7-------|
E|-5-5--5--x-5-5---55-0-5--3-|-0-0-----0-----------0-8-8-|-5-5--5--x-5-5---55-0-5--3-|-0-0-----0-----------0-8-8-|

Verse
G|---------------------------|---------------------------|---------------------------|---------------------------|
D|---------------------------|---------------------------|---------------------------|---------------------------|
A|---------------------------|------7----7-7--7--7-------|---------------------------|------7----7-7--7--7-------|
E|-5-5--5--x-5-5---55-0-5--3-|-0-0-----0-----------0-8-8-|-5-5--5--x-5-5---55-0-5--3-|-0-0-----0-----------0-8-8-|

G|---------------------------|---------------------------|---------------------------|---------------------------|
D|---------------------------|---------------------------|---------------------------|---------------------------|
A|---------------------------|------7----7-7--7--7-------|---------------------------|------7----7-7--7--7-------|
E|-5-5--5--x-5-5---55-0-5--3-|-0-0-----0-----------0-8-8-|-5-5--5--x-5-5---55-0-5--3-|-0-0-----0-----------0-8-8-|

G|---------------------------|---------------------------|---------------------------|---------------------------|
D|---------------------------|---------------------------|---------------------------|---------------------------|
A|---------------------------|------7----7-7--7--7-------|---------------------------|------7----7-7--7--7-------|
E|-5-5--5--x-5-5---55-0-5--3-|-0-0-----0-----------0-8-8-|-5-5--5--x-5-5---55-0-5--3-|-0-0-----0-----------0-8-8-|

G|---------------------------|---------------------------|---------------------------|---------------------------|
D|---------------------------|---------------------------|---------------------------|---------------------------|
A|---------------------------|------7----7-7--7--7-------|---------------------------|------7----7-7--7--7-------|
E|-5-5--5--x-5-5---55-0-5--3-|-0-0-----0-----------0-8-8-|-5-5--5--x-5-5---55-0-5--3-|-0-0-----0-----------0-8-8-|

Chorus
G|-14-----14-----14----|-16---------12-12-|-14-----14-----14----|-16-------12-12-|-14-----14-----14----|
D|----14------14----14-|----14--14--------|----14------14----14-|----14-14-------|----14------14----14-|
A|---------------------|------------------|---------------------|----------------|---------------------|
E|---------------------|------------------|---------------------|----------------|---------------------|

G|-16---------12-12-|-12-----12-----12-|-10-------10-------10----|
D|----14--14--------|----12------12----|----10-10----10-10----10-|
A|------------------|------------------|-------------------------|
E|------------------|------------------|-------------------------|

Guitar sol
G|----------------------|-------------------------|---------------------------------|---------------------------------|
D|-7-7--7-7---7--7-7--7-|-7/9-9-9-9-9---9--9-9--9-|-10/12--12-12-12-12--12-12-12-14-|-14\12--12-12-12-12--12-12-12-12-|
A|----------------------|-------------------------|---------------------------------|---------------------------------|
E|----------------------|-------------------------|---------------------------------|---------------------------------|

G|----------------------|-------------------------|---------------------------------|---------------------------------|
D|-7-7--7-7---7--7-7--7-|-7/9-9-9-9-9---9--9-9--9-|-10/12--12-12-12-12--14-14-14-14-|-14\12--12-14-14-12--12-12-12-12-|
A|----------------------|-------------------------|---------------------------------|---------------------------------|
E|----------------------|-------------------------|---------------------------------|---------------------------------|

G|----------------------|-------------------------|---------------------------------|-------------------------------------|
D|-7-7--7-7---7--7-7--7-|-7/9-9-9-9-9---9--9-9--9-|-10/12--12-12-12-12--14-14-14-14-|-14\12--12-12-12-12--12-12--12-12-12-|
A|----------------------|-------------------------|---------------------------------|-------------------------------------|
E|----------------------|-------------------------|---------------------------------|-------------------------------------|

G|----------------------|-------------------------|------------------------------|------------------------------|
D|-7-7--7-7---7--7-7--7-|-7/9-9-9-9-9---9--9-9--9-|-10/12--12-12-12--14-14-14-14-|-14\12--12-12-12--12-12-12-12-|
A|----------------------|-------------------------|------------------------------|------------------------------|
E|----------------------|-------------------------|------------------------------|------------------------------|

Outro-verse
G|-----|----|----|----|----|----|----|----|----|----------------------------|-------------------------|
D|-----|----|----|----|----|----|----|----|----|----------------------------|-------------------------|
A|-----|----|----|----|----|----|----|----|----|----------------------------|-----7---7-7--7--7-------|
E|--5--|----|----|----|----|----|----|----|----|-5-5--5--x-5-5---5-5-0-5--3-|-0-0---0-----------0-8-8-|

G|---------------------------|---------------------------|---------------------------|---------------------------|
D|---------------------------|---------------------------|---------------------------|---------------------------|
A|---------------------------|------7----7-7--7--7-------|---------------------------|------7----7-7--7--7-------|
E|-5-5--5--x-5-5---55-0-5--3-|-0-0-----0-----------0-8-8-|-5-5--5--x-5-5---55-0-5--3-|-0-0-----0-----------0-8-8-|

G|---------------------------|---------------------------|-----|
D|---------------------------|---------------------------|-----|
A|---------------------------|------7----7-7--7--7-------|-----|
E|-5-5--5--x-5-5---55-0-5--3-|-0-0-----0-----------0-8-8-|--5--|

any mistakes please contact me: Denniejj@hotmail.com
Suggest correction new What's this?
You can suggest a correction to this tab. Community and Mods will review your correction and vote to approve or reject it.
comments
print report bad tab
16 comments total. Showing first comments.
0 reply
costa 313 wrote on September 16 2006, 06:45 am

Yeah this is the right way to play it. If you check out the live videos this is how flea play good work man

0 reply
Flea_dom 26 wrote on September 30 2006, 02:37 am

Amazing job, i wish more tabs on here were so complete and well structured. not to mention ACCURATE!

0 reply
Lukifer1113 101 wrote on April 30 2007, 07:09 pm

yes

guest
You may want to rate the tab now too:
select rating
Please do not post tabs as comments. Select "correction" instead!