Oops, an error
Loading. Please wait.

Throw Away Your Television Bass Tab

version 4
version 4

Whole song

67,112 views 57 this week
17 commentsread comments
1 2 3 4 5
x 46
add to favorites
launch autoscroll
font size
0
reset
guitar tuner
Autoscroll
slow
fast
+/-
esc
set tempo
stop
Help us to improve Ultimate-Guitar.com Take our survey!
×
Author
Difficulty
advanced
Artist: Red Hot Chili Peppers
Sond: Throw away your television
tabbed By: Denniejj


[Intro]
G|---------------------------|---------------------------|---------------------------|
D|---------------------------|---------------------------|---------------------------|
A|---------------------------|------7----7-7--7--7-------|---------------------------|
E|-5-5--5--x-5-5---55-0-5--3-|-0-0-----0-----------0-8-8-|-5-5--5--x-5-5---55-0-5--3-|

|---------------------------|
|---------------------------|
|------7----7-7--7--7-------|
|-0-0-----0-----------0-8-8-|

G|---------------------------|---------------------------|---------------------------|
D|---------------------------|---------------------------|---------------------------|
A|---------------------------|------7----7-7--7--7-------|---------------------------|
E|-5-5--5--x-5-5---55-0-5--3-|-0-0-----0-----------0-8-8-|-5-5--5--x-5-5---55-0-5--3-|

|---------------------------|
|---------------------------|
|------7----7-7--7--7-------|
|-0-0-----0-----------0-8-8-|

[Verse]
G|---------------------------|---------------------------|---------------------------|
D|---------------------------|---------------------------|---------------------------|
A|---------------------------|------7----7-7--7--7-------|---------------------------|
E|-5-5--5--x-5-5---55-0-5--3-|-0-0-----0-----------0-8-8-|-5-5--5--x-5-5---55-0-5--3-|

|---------------------------|
|---------------------------|
|------7----7-7--7--7-------|
|-0-0-----0-----------0-8-8-|

G|---------------------------|---------------------------|---------------------------|
D|---------------------------|---------------------------|---------------------------|
A|---------------------------|------7----7-7--7--7-------|---------------------------|
E|-5-5--5--x-5-5---55-0-5--3-|-0-0-----0-----------0-8-8-|-5-5--5--x-5-5---55-0-5--3-|

|---------------------------|
|---------------------------|
|------7----7-7--7--7-------|
|-0-0-----0-----------0-8-8-|

G|---------------------------|---------------------------|---------------------------|
D|---------------------------|---------------------------|---------------------------|
A|---------------------------|------7----7-7--7--7-------|---------------------------|
E|-5-5--5--x-5-5---55-0-5--3-|-0-0-----0-----------0-8-8-|-5-5--5--x-5-5---55-0-5--3-|

|---------------------------|
|---------------------------|
|------7----7-7--7--7-------|
|-0-0-----0-----------0-8-8-|

G|---------------------------|---------------------------|---------------------------|
D|---------------------------|---------------------------|---------------------------|
A|---------------------------|------7----7-7--7--7-------|---------------------------|
E|-5-5--5--x-5-5---55-0-5--3-|-0-0-----0-----------0-8-8-|-5-5--5--x-5-5---55-0-5--3-|

|---------------------------|
|---------------------------|
|------7----7-7--7--7-------|
|-0-0-----0-----------0-8-8-|

G|---------------------------|---------------------------|---------------------------|
D|---------------------------|---------------------------|---------------------------|
A|---------------------------|------7----7-7--7--7-------|---------------------------|
E|-5-5--5--x-5-5---55-0-5--3-|-0-0-----0-----------0-8-8-|-5-5--5--x-5-5---55-0-5--3-|

|---------------------------|
|---------------------------|
|------7----7-7--7--7-------|
|-0-0-----0-----------0-8-8-|

G|---------------------------|---------------------------|---------------------------|
D|---------------------------|---------------------------|---------------------------|
A|---------------------------|------7----7-7--7--7-------|---------------------------|
E|-5-5--5--x-5-5---55-0-5--3-|-0-0-----0-----------0-8-8-|-5-5--5--x-5-5---55-0-5--3-|

|---------------------------|
|---------------------------|
|------7----7-7--7--7-------|
|-0-0-----0-----------0-8-8-|

G|---------------------------|---------------------------|---------------------------|
D|---------------------------|---------------------------|---------------------------|
A|---------------------------|------7----7-7--7--7-------|---------------------------|
E|-5-5--5--x-5-5---55-0-5--3-|-0-0-----0-----------0-8-8-|-5-5--5--x-5-5---55-0-5--3-|

|---------------------------|
|---------------------------|
|------7----7-7--7--7-------|
|-0-0-----0-----------0-8-8-|


G|---------------------------|---------------------------|---------------------------|
D|---------------------------|---------------------------|---------------------------|
A|---------------------------|------7----7-7--7--7-------|---------------------------|
E|-5-5--5--x-5-5---55-0-5--3-|-0-0-----0-----------0-8-8-|-5-5--5--x-5-5---55-0-5--3-|

|---------------------------|
|---------------------------|
|------7----7-7--7--7-------|
|-0-0-----0-----------0-8-8-|


[Chorus]
G|-14-----14-----14----|-16---------12-12-|-14-----14-----14----|-16-------12-12-|-14-----14-----14----|
D|----14------14----14-|----14--14--------|----14------14----14-|----14-14-------|----14------14----14-|
A|---------------------|------------------|---------------------|----------------|---------------------|
E|---------------------|------------------|---------------------|----------------|---------------------|

G|-16---------12-12-|-12-----12-----12-|-10-------10-------10----|
D|----14--14--------|----12------12----|----10-10----10-10----10-|
A|------------------|------------------|-------------------------|
E|------------------|------------------|-------------------------|

[Interlude]
G|---------------------------|---------------------------|---------------------------|
D|---------------------------|---------------------------|---------------------------|
A|---------------------------|------7----7-7--7--7-------|---------------------------|
E|-5-5--5--x-5-5---55-0-5--3-|-0-0-----0-----------0-8-8-|-5-5--5--x-5-5---55-0-5--3-|

|---------------------------|
|---------------------------|
|------7----7-7--7--7-------|
|-0-0-----0-----------0-8-8-|

[Verse]

G|---------------------------|---------------------------|---------------------------|
D|---------------------------|---------------------------|---------------------------|
A|---------------------------|------7----7-7--7--7-------|---------------------------| -----|
E|-5-5--5--x-5-5---55-0-5--3-|-0-0-----0-----------0-8-8-|-5-5--5--x-5-5---55-0-5--3-|
                                                                                            x4
|---------------------------|
|---------------------------|  -------------------------------------------------------------|
|------7----7-7--7--7-------|
|-0-0-----0-----------0-8-8-|


[Chorus]
G|-14-----14-----14----|-16---------12-12-|-14-----14-----14----|-16-------12-12-|-14-----14-----14----|
D|----14------14----14-|----14--14--------|----14------14----14-|----14-14-------|----14------14----14-|
A|---------------------|------------------|---------------------|----------------|---------------------|
E|---------------------|------------------|---------------------|----------------|---------------------|

G|-16---------12-12-|-12-----12-----12-|-10-------10-------10----|
D|----14--14--------|----12------12----|----10-10----10-10----10-|
A|------------------|------------------|-------------------------|
E|------------------|------------------|-------------------------|

Guitar sol
G|----------------------|-------------------------|---------------------------------|
D|-7-7--7-7---7--7-7--7-|-7/9-9-9-9-9---9--9-9--9-|-10/12--12-12-12-12--12-12-12-14-|
A|----------------------|-------------------------|---------------------------------|
E|----------------------|-------------------------|---------------------------------|

|---------------------------------|
|-14\12--12-12-12-12--12-12-12-12-|
|---------------------------------|
|---------------------------------|

G|----------------------|-------------------------|---------------------------------|
D|-7-7--7-7---7--7-7--7-|-7/9-9-9-9-9---9--9-9--9-|-10/12--12-12-12-12--12-12-12-14-|
A|----------------------|-------------------------|---------------------------------|
E|----------------------|-------------------------|---------------------------------|

|---------------------------------|
|-14\12--12-12-12-12--12-12-12-12-|
|---------------------------------|
|---------------------------------|

G|----------------------|-------------------------|---------------------------------|
D|-7-7--7-7---7--7-7--7-|-7/9-9-9-9-9---9--9-9--9-|-10/12--12-12-12-12--12-12-12-14-|
A|----------------------|-------------------------|---------------------------------|
E|----------------------|-------------------------|---------------------------------|

|---------------------------------|
|-14\12--12-12-12-12--12-12-12-12-|
|---------------------------------|
|---------------------------------|


G|----------------------|-------------------------|------------------------------|
D|-7-7--7-7---7--7-7--7-|-7/9-9-9-9-9---9--9-9--9-|-10/12--12-12-12--14-14-14-14-|
A|----------------------|-------------------------|------------------------------|
E|----------------------|-------------------------|------------------------------|

|------------------------------|
|-14\12--12-12-12--12-12-12-12-|
|------------------------------|
|------------------------------|


[Outro-verse]
G|-----|----|----|----|----|----|----|----|----|----------------------------|-------------------------|
D|-----|----|----|----|----|----|----|----|----|----------------------------|-------------------------|
A|-----|----|----|----|----|----|----|----|----|----------------------------|-----7---7-7--7--7-------|
E|--5--|----|----|----|----|----|----|----|----|-5-5--5--x-5-5---5-5-0-5--3-|-0-0---0-----------0-8-8-|

G|---------------------------|---------------------------|---------------------------|
D|---------------------------|---------------------------|---------------------------|
A|---------------------------|------7----7-7--7--7-------|---------------------------|
E|-5-5--5--x-5-5---55-0-5--3-|-0-0-----0-----------0-8-8-|-5-5--5--x-5-5---55-0-5--3-|

|---------------------------|
|---------------------------|
|------7----7-7--7--7-------|
|-0-0-----0-----------0-8-8-|

G|---------------------------|---------------------------|-----|
D|---------------------------|---------------------------|-----|
A|---------------------------|------7----7-7--7--7-------|-----|
E|-5-5--5--x-5-5---55-0-5--3-|-0-0-----0-----------0-8-8-|--5--|


any mistakes please contact me: Denniejj@hotmail.com



************************************

| x  Dead note
| /  Slide up
| \  Slide down  

************************************
Suggest correction
comments
print report bad tab
17 comments total. Showing first comments.
0 reply
costa 48 Sep 16, 2006 06:45 AM

Yeah this is the right way to play it. If you check out the live videos this is how flea play good work man

0 reply
Flea_dom 10 Sep 30, 2006 02:37 AM

Amazing job, i wish more tabs on here were so complete and well structured. not to mention ACCURATE!

0 reply
Lukifer1113 10 Apr 30, 2007 07:09 PM

yes

guest
You may want to rate the tab now too:
select rating
Wanna post a correction for this tab? Suggest correction