Oops, an error
Loading. Please wait.

Time bass

version 3
version 3

Whole song

Interactive

2,352 views 3 this week
1 commentread comment
1 2 3 4 5
x 3
add to favorites
×
Save as Personal and add changes to this tab that will be seen only by you. Learn more ›
×
You can save this tab as Personal to edit and correct it or add notes. All changes will be seen only by you. Learn more »
launch autoscroll
font size
0
reset
guitar tuner
edit
Autoscroll
slow
fast
+/-
esc
set tempo
stop
Author
First off, I'd like to say this:
1. Great Song, it's on the BTW b-side.
2. This is my first Rhcp tab
3. If you can't read most of what i'm putting down
   i put the fret numbers on the side just in case.
4. Enjoy the tab, rate it, hate it, w/e

=]

Legend:
h= hammer-on a note (ex. 7h9)
p= pull off a note (ex. 9p7)
b= bend the string (ex. 7b)
x= ghost note/muted not 
/ \= slide (/ is slide up, \ slide down, 
/\ slide up and down)


The Intro!

G|--------|
D|--------|
A|------7b|
E|55-x5---|

Play that 4 times, on the third time though, 
play the 7b twice, instead of once.

Verse!

|-----x5555------------|
|7x7x7-----------------|
|-----------8x8x8------|
|-----------------x8888|


Play that about 8 or 9 times
You can also play the 7's as 12's on the A,
5's as 10's on the D, the 8's (on the A) as 13's
on the E and the 8's on the E regularly.


Then you go to the Bridge
Which is where he starts sing, TIME!
The epic part!


|--------------------------|
|1214--1214--------1214----| 4x's
|--------------------------| w/ variations
|----12----12121212----1212| 1,2,1,3 (in that order)
(those are 12's)

Variations (after the 12's)

1
|----141614----|      (it's 12,14,16,17)
|1214------1714|   Play that the first time
|--------------|       then again after
|--------------|     the second variation

2
|14-16-19-19-16|
|--------------| really fast.
|--------------|   
|--------------|

3
|----------|
|1214--1214|                (frets 12,14)
|----------|   Play this part only on the first
|----------|       time you play the bridge

4 
|------------|
|1214--------|               (frets 12,14)
|--------1214|   Played on the third bridge.
|----1214----|         



then
Verse: 8x's
2nd Bridge: 4x's w/ same variations 

Then the FIRST chorus.

Chorus, with all variations.
|-----------------------------------|
|-----------------------------------|
|14-14--------------12-12------10h12| 
|-----121314-141414------101112-----|


on the fills, replace the 10,11,12 and the 10h12
with the fills. unless specified, replace the 12-12.

1.
|--------------------|
|--------------------|
|12121214-14-------12|
|-----------1212-14--|

2. Replace the 12-12 and on w/ the following
|------------------|
|---10-12----------| (frets 12, and 11)
|7-7---------------|
|--------1212121112|

3. Replace the 12-12 and on w/e the following
|----------------------|
|----------------------|
|14h16-14-12h14--------|
|--------------12-12-12|

Verse: 8x's
3rd Bridge: 4x's w/ variations 1,2,1,4 (in that order)

2nd Chorus (do the same with this chorus like the last one.)

Use all variations in numerical order.

1.
|-------------------------------------|
|-------------------------------------|   
|14-14---------------12-12-----9h10---|     
|-----121314-141414------101112-----x9|      

2.Replace the 12-12 and on w/e the following
|-------------------------|
|-------------------------|
|12121214-14----12h14-12--|
|-----------1212--------14|

3. This one starts after the E|12-13-14-14
|------------------------|
|------------------------|    
|----12-12---------------|      
|x14-------101112--x10-x9|  

4. This one is just like variation 2 in replacements.
|---------------------|
|---------------------|   
|12---12-12---------10|     
|--14-------101112----|  


Outro

|--------------------------------------------|
|--------------------------------------------|   
|14-14---------12--12--12-12-----------------|     
|-----121314-14--14---------101112--12h14--12|  

|----------------------|
|----------------------|   
|14-14---------12--12--|
|-----121314-14--14----|                         

|-----------------------|
|-----------------------|
|-------------12h1412---|     
|7-7----101112--------14|

|----------------------|    
|----------------------|   
|--------------121412--|\|121412--|
|7-7--121314---------14|/|------14|

|---------------------|
|---------------------|   
|12-12-1412-----------|
|----------14-12-13-14|

|---------------------------|
|---------------------------|   
|----------------12-12------|
|7-7--12131414---------14-12|

|-------------|
|-------------|   
|----567------|
|5-5-----02-56|

|-----------------------|
|-----------------------|   
|-----------------------|
|7-7--12131414-14-1414-7|

|--------------------|
|--------------------|   
|12-1212-14----------|
|----------12---12-12|


|------------------------|
|------------------------|   
|14h16-14-12h14---14h16--|
|--------------14------14|

|-------------------|
|-------------------|   
|121412--12---------|
|------14--14-121412|

|-----------------|
|-----------------|   
|-------------12--|
|7-7-121314-----14|

|-----------------------|
|----------------------7|   
|----567---5-7-5-7-7h9--|
|5-5--------------------|

|---------------------|
|---------------------|   
|-------------12b14-12|
|7-7-121314---------14|

|----|
|----|   
|--7~|
|5---|

End~
Enjoy!

            
            
Suggest correction
Creating personal tab
Creating personal tab
You can edit any tab online and save it as your Personal.

You can edit, replace or remove any tab part or add personal notes – all changes will be seen only by you.

Personal tabs can be accessed anytime from any device, even offline.
Learn more »
Give kudos to tab author, rate the tab!
1 2 3 4 5
comments
print report bad tab
1 comment total.
0 reply
13Kelly13 124 Dec 20, 2010 08:37 AM

Great job, all the other tabs for this song are abysmal. Im glad somebody did it right! :)

guest
You may want to rate the tab now too:
select rating
Wanna post a correction for this tab? Suggest correction