Oops, an error
Loading. Please wait.

Torture Me tab

version 2
version 2
4,115 views 1 this week
3 commentsread comments
1 2 3 4 5
x 9
add to favorites
×
Save as Personal and add changes to this tab that will be seen only by you. Learn more ›
×
You can save this tab as Personal to edit and correct it or add notes. All changes will be seen only by you. Learn more »
launch autoscroll
font size
0
reset
how to read this tab
guitar tuner
edit
Autoscroll
slow
fast
+/-
esc
set tempo
stop
Author
Standard Tuning
eBGDAE

Bass Intro then: fast chord strumming

         A#                                 D#m
0:15                                         0:19
|----6--6-6-6--.......------6--6-6-6.........------------------|
|----6--6-6-6--.......------7--7-7-7.........------------------|
|----7--7-7-7--.......------8--8-8-8..........|        Repeat--| 5X
|----8--8-8-8--.......------8--8-8-8.........------------------|
|----8--8-8-8--.......------6--6-6-6.........------------------|
|----6--6-6-6--.......----- (6)- 6-6-6.........----------------|

on the 5th time under the D#m chord there is a background guitar doing this:

|------------|                |------------------|
|----9-------|                |------------------|
|--- 12^(13)--|      OR     |----13--------------|
|------------|                |----17^(18)-------|
|------------|                |------------------|
|------------|                |------------------|


|-------------------------------------------------------------|
|-------------------------------------------------------------|
|----------10------------------------8^(10)v8------6----------|   continue on
|---8---8------11----8--11-------8-------------8-----8--------|   next line
|---------------------------9---------------------------------|
|-------------------------------------------------------------|
                                                                                         
      A#............D#m
|--------------------------------------------------- 8.........----6--|
|--------------------------------------------------- 8.........----7--|
|----------10--------------------------------------- 7.........----8--|
|---8---8------11----8--11-------8~----------------  8.........----8--|
|---------------------------9----------------------- 8..........----6-|
|--------------------------------------11^~~- 106-- 6..........-------|(6)


slow part with distortion
1:58
          C#           D#m              C#           D#m         C#         D#m          
              D#m
|--------------6-----------------6-----------------6--------44444444- 66666666----|
|-----6--------7--------6--------7--------6--------7--------6---------7-----------|
|-----6--------8--------6--------8--------6--------8--------6---------8-----------|
|-----6--------8--------6--------8--------6--------8--------6---------8-----------|
|-----4--------6--------4--------6--------4--------6--------4---------6-----------|
|---------------------------------------------------------------------------------|

         C#                D#m
|-----44444444- 6-----|
|-----6---------7-----|
|-----6---------8-----|
|-----6---------8-----|
|-----4---------6-----|
|---------------------|

Solo

|--------------------|
|--------------------|
|--------------------|
|-------6666/8888----|
|--------------------|
|--------------------|

enjoy so far
ill be back with the rest of the solo

on the bends, start on the listed, initial note and bend up to the note that's in parenthesis

            
            
Suggest correction
Creating personal tab
Creating personal tab
You can edit any tab online and save it as your Personal.

You can edit, replace or remove any tab part or add personal notes – all changes will be seen only by you.

Personal tabs can be accessed anytime from any device, even offline.
Learn more »
comments
print report bad tab
3 comments total.
+1 reply
Hegarty 47 May 25, 2006 04:49 AM

pretty good tab, i would change the A# to e---6----
b---6---- g---6----
d---8----
a---8----
e---6----

0 reply
tedstar55 10 May 28, 2006 12:05 AM

i agree it sounds better that way

0 reply
freakfrusciante 10 Apr 10, 2007 04:43 AM

ya its a Am# chord

guest
You may want to rate the tab now too:
select rating
Wanna post a correction for this tab? Suggest correction