Oops, an error
Loading. Please wait.

Under The Bridge Tab

version 1
version 1

Intro

Whole song

Video

1,227,319 views 984 this week
87 commentsread comments
1 2 3 4 5
accurate
x 268
add to favorites
launch autoscroll
font size
0
reset
how to read this tab
guitar tuner
Autoscroll
slow
fast
+/-
esc
set tempo
stop
Help us to improve Ultimate-Guitar.com Take our survey!
×
this is the best introduction i can do. and im going crazy because im a beginner and i 
can play this. DAMN! HELL YEHA!

e|-------------|----------------|
B|3----3-------|2---------------|
G|--2---2------|-----3----------|
D|-4-4---------|--4---4-4-2-0---|
A|5------4-2-0-|-4-4----------2-|
E|------------4|2---------------|

e|----------------------|----------------|
B|3--------3-5-3--------|----------------|
G|------2--------2------|------3---------|
D|---4---4---------4-6-6|---4---4-4-2-0--|
A|4-5-5------------5-7-7|--4-4---------2-|
E|----------------------|2---------------|

e|------------------|-----------------|
B|3-------3---------|2----------------|
G|-----2---2--------|------3----------|
D|----4-4----4-2-0--|---4---4-4-2-0---|
A|4/5--------------4|--4-4----------2-|
E|------------------|2----------------|

  SLIDE YOUR FINGERS ON THEESE THE 3-5-3.
            v^v^v
e|----------------------|--------------|
B|3---------3-5-3-------|--------------|
G|-------2-------2------|------3---3---|
D|----4---4--------4-6-6|---4---4---4--|
A|4-5--5-----------5-7-7|--4-4---4---4-|
E|----------------------|2-------------|

and that my FRiends Is the under the BRiDe intro. perfectly correct. please agree with me.
Suggest correction
comments
print report bad tab
87 comments total. Showing first comments. show 1 bad comment
+8 reply
RaTm4ever 10 wrote on May 14 2002, 12:00 am

hell yeah im a BEGINNER YOU BASTARD. i STrTED in january and were now in may, thats concidered atleast a starter right?

+4 reply
Starvin_Marvin 0 wrote on May 14 2002, 12:00 am

This Tab Is Great! Complitly Correct. A Tip: John Plays The Hall Intro With a Capo on 2.

guest
You may want to rate the tab now too:
select rating
Wanna post a correction for this tab? Suggest correction