Oops, an error
Loading. Please wait.

Under The Bridge Tab

version 1
version 1

Live

Whole song

41,001 views 18 this week
8 commentsread comments
1 2 3 4 5
x 17
add to favorites
launch autoscroll
font size
0
reset
how to read this tab
guitar tuner
backing track
0:00
0:00
×
Best way to learn
"Under The Bridge"
Autoscroll
slow
fast
+/-
esc
set tempo
stop
Author
Tuning
E A D G B E
I havent found a tab for this version yet so i decided to do one, its along the lines of 
original with some cool alterations and licks in, best version in my opinion.Taken from 
Chili Pepper's live recording at Slane Castle. Enjoy!!!

Intro

With fingers

Let ring throughout
E---------------------|---------------------|-----------------2/4-4-|
B-3-------3-----------|---------------------|-------------3---3/5-5-|
G-----2-----2---------|---------3-----------|---------2-----2-------|
D---4---4-------------|-----4-----4-4-2-----|-----4-----4-----------|
A-5-----------4-2-----|---4---4---------5-2-|-4h5---5---------------|
E-----------------5-4-|-2-------------------|-----------------------|

E---------------------|-------------------------|---------------------|
B---------------------|-------------3-----------|---------------------|
G---------3-----------|---------2-----2---------|---------3-----------|
D-----4-----4-4-2-----|-----4-----4-------------|-----4-----4-4-2-----|
A---4---4---------5-2-|-4h5---5---------4-2-----|---4---4---------5-2-|
E-2-------------------|---------------------5-2-|-2-------------------|

E-----------------2/4-4-|----------------------|
B-------------3---3/5-5-|----------------------|
G---------2-----2-------|---------3-----3------|
D-----4-----4-----------|-----4-----4-----4----|
A-4h5---5---------------|---4---4-----4-----4/-|
E-----------------------|-2--------------------|

Verse

With pick/plectrum.

E------|----------|------|-------|
B-9--7-|-9---4--5-|-9--7-|-9---5-|
G-9--8-|-9---4--6-|-9--8-|-9---6-| x2
D-9--9-|-11--6--7-|-9--9-|-11--7-|
A-7--9-|-11--6--7-|-7--9-|-11--7-|
E------|----------|------|-------|

E---|
B-9-|
G-8-|
D-9-|
A-7-|
E---|

Verse

E-----------------|-------------5h7p5---|-------------------------|
B---9-----7-------|------9--4-5-5h7p5---|-----------------7-------|
G---9-----8h9p8---|------9--4-6-------6-|------9----------8h9p8---|
D-9---9-9-------9-|-9/11-11-6-7---------|------9----------------9-|
A-7---9-9---------|-9/11----6-7---------|-9/11---11\9-9-9---------|
E-----------------|---------------------|-------------------------|

E-----------------|-----------------|-------------5h7p5---|
B------9--5-5---5-|-9-9-7---7h9p7---|------9--4-5-5h7p5---|
G------9--6-6---6-|-9-9-8---------8-|------9--4-6-------6-|
D-9/11-11-7-----7-|-9---9-9---------|-9/11-11-6-7---------|
A-9/11----7---7-7-|-7---9-----------|-9/11----6-7---------|
E-----------------|-----------------|---------------------|

E-----------------------|-----------|---|
B------9----------7-----|------9--5-|-9-|
G------9----------8h9p8-|------9--6-|-8-|
D------9------9---------|-9/11-11-7-|-9-|
A-9/11---11\9-9-9-------|-9/11----7-|-7-|
E-----------------------|-----------|---|

Chorus

E----------|-11-11-11-11----9--9------|--------------| -- |
B-10-9-9-9-|-12-12-12-12-10-10-10-x-x-|-x-x-10-9-9-9-| -- |
G-11-9-9-9-|-11-11-11-11-11-11-11-x-x-|-x-x-11-9-9-9-| -- |
D-11-9-9-9-|-9--9--9--9--11-11-11-x-x-|-x-x-11-9-9-9-| -- |
A-9--7-7-7-|-------------9--------x-x-|-x-x-9--7-7-7-| -- |
E----------|--------------------------|--------------| -- |
                                                        | x2
E-11-11-11-11----9--9------|                           -- |
B-12-12-12-12-10-10-10-x-x-|                           -- |
G-11-11-11-11-11-11-11-x-x-|                           -- |
D-9--9--9--9--11-11-11-x-x-|                           -- |
A-------------9--------x-x-|                           -- |
E--------------------------|                           -- |

Interlude

E-----------------------|-------------5h7p5---|
B---10--7-7-7-9-9-7-7-7-|------9--4-5-5h7p5---|
G---9---8-8-8-8-8-8-8-8-|------9--4-6-------6-|
D-9-----9-9-9-9-9-9-9-9-|-9/11-11-6-7---------|
A-7---------------------|-9/11----6-7---------|
E-----------------------|---------------------|

E--------------------------|-------------------------|
B------------------7-------|------9------------------|
G---------9--------8h9p8---|------9-11b13r11p9----9--|
D------9--9-9--9---------9-|-9/11--------------11-11-|
A-9/11-11---11-9-9---------|-9/11--------------------|
E--------------------------|-------------------------|

Verse

E------------------|-------------5h7p5-|----------------7h9-7-|
B---10-7---7-------|------9--4-5-5h7p5-|------9---------7---7-|
G-9-9--8---8h9p8---|------9--4-6-------|------9---------8---8-|
D-9----9---------9-|-9/11-11-6-7-------|------9---------------|
A-7----9-9---------|-9/11----6-7-------|-9/11----11\9-9-------|
E------------------|-------------------|----------------------|

E-----------7-5---7-5---|-------------------------|
B------9--5-----5-----5-|------9----------7-------|
G------9--6-------------|------9----------8h9p8---|
D-9/11-11-7-------------|------9----------------9-|
A-9/11----7-------------|-9/11---11\9-9-9---------|
E-----------------------|-------------------------|

E-------------5h7p5---|-------------------------|
B------9--4-5-5h7p5---|------9----------7-------|
G------9--4-6-------6-|------9----------8h9p8---|
D-9/11-11-6-7---------|------9----------------9-|
A-9/11----6-7---------|-9/11---11\9-9-9---------|
E---------------------|-------------------------|

E-----------|---|
B------9--5-|-9-|
G------9--6-|-8-|
D-9/11-11-7-|-9-|
A-9/11----7-|-7-|
E-----------|---|

Chorus

E----------|-11-11-11-11----9--9------|--------------| -- |
B-10-9-9-9-|-12-12-12-12-10-10-10-x-x-|-x-x-10-9-9-9-| -- |
G-11-9-9-9-|-11-11-11-11-11-11-11-x-x-|-x-x-11-9-9-9-| -- |
D-11-9-9-9-|-9--9--9--9--11-11-11-x-x-|-x-x-11-9-9-9-| -- |
A-9--7-7-7-|-------------9--------x-x-|-x-x-9--7-7-7-| -- |
E----------|--------------------------|--------------| -- |
                                                        | x2
E-11-11-11-11----9--9------|                           -- |
B-12-12-12-12-10-10-10-x-x-|                           -- |
G-11-11-11-11-11-11-11-x-x-|                           -- |
D-9--9--9--9--11-11-11-x-x-|                           -- |
A-------------9--------x-x-|                           -- |
E--------------------------|                           -- |


Bridge

Listen to the track to get the strumming pattern.

With chorus.

E---------------|---------------|
B-5-5-5-5-5-5-5-|-3-3-3-0-1-1-1-|
G-6-6-6-5-5-5-5-|-4-4-4-2-2-2-2-| x3
D-7-7-7-7-7-7-7-|-5-5-5-3-3-3-3-|
A-7-7-7-7-7-7-7-|-5-5-5-3-3-3-3-|
E---------------|---------------|

E-12-----|-10----14----|
B-10-----|-9-----12----|
G-10-x16-|-9--x8-12-x8-|
D-10-----|-9-----12----|
A-8------|-7-----10----|
E--------|-------------|

Chorus

E---------------|---------------|
B-5-5-5-5-5-5-5-|-3-3-3-0-1-1-1-|
G-6-6-6-5-5-5-5-|-4-4-4-2-2-2-2-| x8
D-7-7-7-7-7-7-7-|-5-5-5-3-3-3-3-|
A-7-7-7-7-7-7-7-|-5-5-5-3-3-3-3-|
E---------------|---------------|

Outro

E-------------------|---------------|
B-5-5-5-5-----------|-3-3-3-0-1-1-1-|
G-6-6-6-5---5h7p5---|-4-4-4-2-2-2-2-|
D-7-7-7-7-7-------7-|-5-5-5-3-3-3-3-|
A-7-7-7-7-7---------|-5-5-5-3-3-3-3-|
E-------------------|---------------|

E---------------|---------------|
B-5-5-5-5-5-5-5-|-3-3-3-0-1-1-1-|
G-6-6-6-5-5-5-5-|-4-4-4-2-2-2-2-| x2
D-7-7-7-7-7-7-7-|-5-5-5-3-3-3-3-|
A-7-7-7-7-7-7-7-|-5-5-5-3-3-3-3-|
E---------------|---------------|

E---------------|--------------|
B-5-5-5-5-5-5-5-|-3-3-3-0-1--5-|
G-6-6-6-5-5-5-5-|-4-4-4-2-2--6-|
D-7-7-7-7-7-7-7-|-5-5-5-3-3--7-|
A-7-7-7-7-7-7-7-|-5-5-5-3-3--7-|
E---------------|--------------|

Key:
h - hammer
p - pull off
/ - slide up
\ - slide down
x - muted strings

There you are. Enjoy!!!
Suggest correction
comments
print report bad tab
8 comments total. Showing first comments.
0 reply
blink-41 10 Aug 16, 2008 05:42 PM

Greatt men Great ^^

Good Job (Y)

0 reply
thedudemeister 339 Sep 01, 2008 06:46 AM

cheers dude.

-1 reply
xago 10 Jul 10, 2009 05:49 PM

Perfect. This is the tab of what John plays here: http://www.youtube.com/watch?v=mU_sxusyuoI

guest
You may want to rate the tab now too:
select rating
Wanna post a correction for this tab? Suggest correction