Oops, an error
Loading. Please wait.

Under The Bridge Bass Tab

version 3
version 3
343,210 views 615 this week
43 commentsread comments
1 2 3 4 5
x 191
add to favorites
launch autoscroll
font size
0
reset
guitar tuner
Autoscroll
slow
fast
+/-
esc
set tempo
stop
Help us to improve Ultimate-Guitar.com Take our survey!
×
Tabbed By : Ali_dreamweaver
e-mail: ally_cloudsurfer@hotmail.com

Tuning: Standard (E A D G)

This is my first tab so be nice please!!   It's not 100% accurate i know,
but who is going to manage to tab one of Flea's basslines that is!!

Listen to the song for the timings and keep a steady beat


No Bass until between [verse 1 and 2]

G|---------------------------------------------------------------------------|
D|---------------------------------------------------------------------------|
A|---------------------------------------------------------------------------|
E|-0---0---0---0---0 let ring------------------------------------------------|


[Then chorus]

G|---------------------------------------------------------------------------|
D|--11---------9--------------9----------------------------------------------|
A|--9----7--7------7---------------7----9---9---9---9------------------------|
E|--------------------9---7--------------------------------------------------|

G|---------------------------------------------------------------------------|
D|--11---------9--------------9----------------------------------------------|
A|--9----7--7------7---------------7----9---9h11p9h11p9----------------------|
E|--------------------9---7--------------------------------------------------|

G|---------------------------------------------------------------------------|
D|--11---------9---------------9---------------------------------------------|
G|---------------------------------------------------------------------------|
D|--11---------9---------------9---------------------------------------------|
A|--9----7--7------7---------------7----9---9--------------------------------
E|--------------------9----7-------------------------------------------------


[Verses]

G|---------------------------------------------------------------------------|
D|---------------------------------------------------------------------------|
A|---------2--------0---------------2-------4-----0-----0--------------------|
E|--0------------4------------0----------------------------------------------|

G|---------------------------------------------------------------------------|
D|---------------------------------------------------------------------------|
A|---------2--------0---------------2-------4-----0-----0--------------------|
E|--0------------4------------0----------------------------------------------|

G|--------------------------------------------------------------------7/9----|
D|---------------------------------------------------------------------------|
A|---------2--------0---------------2-------4-----0-----0--------------------|
E|--0------------4------------0----------------------------------------------|


[Back to chorus]

G|---------------------------------------------------------------------------|
D|--11---------9--------------9----------------------------------------------|
A|--9----7--7------7---------------7----9---11-9-7-9-------------------------|
E|--------------------9---7--------------------------------------------------|

G|---------------------------------------------------------------------------|
D|--11---------9--------------9----------------------------------------------|
A|--9----7--7------7---------------7----9---9--------------------------------|
E|--------------------9---7---------------------2---2------------------------|

G|---------------------------------------------------------------------------|
D|--11---------9--------------9----------------------------------------------|
A|--9----7--7------7---------------7----9---9---9---9------------------------|
E|--------------------9---7--------------------------------------------------|

G|---------------------------------------------------------------------------|
D|--11---------9--------------9----------------------------------------------|
A|--9----7--7------7---------------7----9---9-----9--------------------------|
E|--------------------9---7--------------------------------------------------|


[Ending]

G|-----9---------------------------------7--------------------5--------------|
D|--7-----7----10----7----5----7----5--------5----3-----5h7-------7p5--------|
A|---------------------------------------------------------------------------|
E|---------------------------------------------------------------------------|

G|----9-------9-----------7-----------------------5--------------------------|
D|---------7-----7----5--------5-----3-----5h7--------7p5h7------------------|
A|-0----0--------------------------------------------------------------------|
E|---------------------------------------------------------------------------|

G|-----9---------------------------------7--------------------5--------------|
D|--7-----7----10----7----5----7----5--------5----3-----5h7-------7p5--------|
A|---------------------------------------------------------------------------|
E|---------------------------------------------------------------------------|


[Bridge before choir]

G|--------------------------------------------------------------------------|
D|--------------------------------------------------------------------------|
A|--------------------------------------------------------------------------|
E|--1-1-1-1-1-1-1-1-0-0-0-0-3-3-3-3-----------------------------------------|

G|-----9---------------------------------7--------------------5--------------|
D|--7-----7----10----7----5----7----5--------5----3-----5h7-------7p5--------|
A|---------------------------------------------------------------------------|
E|---------------------------------------------------------------------------|

G|----9-------9-----------7-----------------------5--------------------------|
D|---------7-----7----5--------5-----3-----5h7-------7p5h7-------------------|
A|-0----0--------------------------------------------------------------------|
E|---------------------------------------------------------------------------|

G|-----9---------------------------------7--------------------5--------------|
D|--7-----7----10----7----5----7----5--------5----3-----5h7-------7p5--------|
A|---------------------------------------------------------------------------|
E|---------------------------------------------------------------------------|

G|----9-------9-----------7-----------------------5--------------------------|
D|---------7-----7----5--------5-----3-----5h7-------7p5h7-------------------|
A|-0----0--------------------------------------------------------------------|
E|---------------------------------------------------------------------------|

G|-----9---------------------------------7--------------------5--------------|
D|--7-----7----10----7----5----7----5--------5----3-----5h7-------7p5--------|
A|---------------------------------------------------------------------------|
E|---------------------------------------------------------------------------|

G|----9-------9-----------7-----------------------5--------------------------|
D|---------7-----7----5--------5-----3-----5h7-------7p5h7-------------------|
A|-0----0--------------------------------------------------------------------|
E|---------------------------------------------------------------------------|

G|-----9---------------------------------7--------------------5--------------|
D|--7-----7----10----7----5----7----5--------5----3-----5h7-------7p5--------|
A|---------------------------------------------------------------------------|
E|---------------------------------------------------------------------------|

G|----9-------9-----------7-----------------------5--------------------------|
D|---------7-----7----5--------5-----3-----5h7-------7p5h7-------------------|
A|-0----0--------------------------------------------------------------------|
E|---------------------------------------------------------------------------|


[End of vocals and drums]

G|-----9---------------------------------7--------------------5--------------|
D|--7-----7----10----7----5----7----5--------5----3-----5h7-------7p5--------|
A|---------------------------------------------------------------------------|
E|---------------------------------------------------------------------------|

G|----9-------9-----------7-----------------------5h7p5---------------------|
D|---------7-----7----5--------5-----3-----5h7------------7p5---------------|
A|-0----0-------------------------------------------------------------------|
E---------------------------------------------------------------------------|

G|-----9---------------------------------7--------------------5--------------|
D|--7-----7----10----7----5----7----5--------5----3-----5h7-------7p5--------|
A|---------------------------------------------------------------------------|
E|---------------------------------------------------------------------------|

G|----9-------9-----------7--------------------------------------------------|
D|---------7-----7----5--------5-----3---------------------------------------|
A|-0----0------------------------------------0 let ring----------------------|
E|---------------------------------------------------------------------------|


Well that's it, have fun



************************************

| h  Hammer-on
| p  Pull-off
| /  Slide up

************************************
Suggest correction
comments
print report bad tab
43 comments total. Showing first comments.
+1 reply
cgplaya 220 Sep 25, 2005 09:07 PM

perfect

+2 reply
harl91 373 Jul 17, 2006 08:04 PM

best tab here

+1 reply
m_daly_123 51 Jul 25, 2006 08:50 AM

sounds good....the last note of the whole song is a chord, played like this:

D----
G-7~-
A-0~-
E----

other than that though...perfect...5 stars!

guest
You may want to rate the tab now too:
select rating
Wanna post a correction for this tab? Suggest correction