Oops, an error
Loading. Please wait.
We have an official Under The Bridge tab made by UG professional guitarists. Check out the tab »
×
5,288 views 27 this week
1 commentread comment
1 2 3 4 5
x 20
add to favorites
×
Save as Personal and add changes to this tab that will be seen only by you. Learn more ›
×
You can save this tab as Personal to edit and correct it or add notes. All changes will be seen only by you. Learn more »
launch autoscroll
font size
0
reset
transpose
0
reset
simplify chords
display chords
guitar tuner
backing track
0:00
0:00
edit
Autoscroll
slow
fast
+/-
esc
set tempo
stop
Author
Strumming
There is no strumming pattern for this song yet. and get +5 IQ
Under the Bridge - Red Hot Chili Peppers - Ukulele

Intro:

A-|--5-------5---4-2-0-----------1----9-7-5-2--|
E-|----2---2-----------4-2---2-----2-----------|
C-|--2---------------------1---1---------------|
G-|------2-----2-------------------------------|
 
A-|--5-----------5h7p5----------------------1----9-7-5-2--|
E-|------2-----2----------2/4-4--2-----2------2-----------|
C-|--2-2---2--------------2/4-4-----1-----1---------------|
G-|----------2---------2----------------------------------|
 
A-|-5-----------5----4-2-0-----------1----9-7-5-2--|
E-|-----2-----2------------4-2---2-----2-----------|
C-|-2-2---2--------------------1---1---------------|
G-|---------2-----2--------------------------------|

A-|--5-----------5h7p5----------------------1------1------|
E-|------2-----2----------2/4-4--2-----2------2------2----|
C-|--2-2---2--------------2/4-4-----1-----1------1-----1--|
G-|----------2---------2----------------------------------|

Verse:

E         B             C#m7         A
Sometimes I feel like I don't have a partner
E         B          C#m7     A
Sometimes I feel like my only friend
       E      B            C#m7    A
Is the city I live in, the City of Angels
E         B       C#m7      A     Emaj7
Lonely as I am, together we cry

  E           B               C#m7         A
I drive on her streets 'cause she's my companion
  E                B                C#m7        A
I walk through her hills 'cause she knows who I am
     E            B            C#m7      A
She sees my good deeds and she kisses me windy
E       B        C#m7        A     Emaj7
I never worry, now that is a lie

Chorus:

F#m                  E   B        F#m
I don't ever want to feel, like I did that day
F#m                  E     B           F#m
Take me to the place I love, take me all the way
F#m                  E    B          F#m
I don't ever wanna to feel, like I did that day
F#m                  E     B           F#m
Take me to the place I love, take me all the way,

E  B  C#m7  A  ~x2

Verse:

     E         B                C#m7     A
It's hard to believe that there's nobody out there
     E         B         C#m7      A
It's hard to believe that I'm all alone
   E            B            C#m7      A
At least I have her love, the city she loves me
E         B      C#m7       A
Lonely as I am, together we cry

Emaj7

Chorus:

F#m                  E   B        F#m
I don't ever want to feel, like I did that day
F#m                  E     B           F#m
Take me to the place I love, take me all the way
F#m                  E    B          F#m
I don't ever wanna to feel, like I did that day
F#m                  E     B           F#m
Take me to the place I love, take me all the way,

Bridge/Outro:

A      Am   G     F
yeah, yeah, yeah, yeah
A  Am         G     F
Oh no, I said yeah, yeah
A    Am         G     F
Love me, I said yeah, yeah

A                Am       G         F
Under the bridge down town is where I drew some blood
A                Am       G         F
Under the bridge down town I could not get enough
A                Am       G         F
Under the bridge down town forgot about my love
A                Am       G         F              A Am  G    F
Under the bridge down town I gave my life away-yeah,     yeah yeah
A   Am        G     F        
No, no I said yeah, yeah

A  C  G  F  ~x4
A

Chord Diagram:
     E  B  C#m7  A  Emaj7  F#m  Am  G  F  C
A-|--2--2--4-----0--2------0----0---2--0--3--|
E-|--4--2--4-----0--4------1----0---3--1--0--|
C-|--4--3--4-----1--3------2----0---2--0--0--|
G-|--4--4--4-----2--4------1----2---0--2--0--|
Suggest correction
Creating personal tab
Creating personal tab
You can edit any tab online and save it as your Personal.

You can edit, replace or remove any tab part or add personal notes – all changes will be seen only by you.

Personal tabs can be accessed anytime from any device, even offline.
Learn more »
comments
print report bad tab
1 comment total.
0 reply
benlunn99 47 Aug 16, 2016 06:36 PM

Such a great tab! Thanks for the hard work!

guest
You may want to rate the tab now too:
select rating
Wanna post a correction for this tab? Suggest correction