Oops, an error
Loading. Please wait.

Velvet Glove tab

version 1
version 1

Whole song

Interactive

7,621 views 18 this week
no commentswrite comment
1 2 3 4 5
x 3
add to favorites
×
Save as Personal and add changes to this tab that will be seen only by you. Learn more ›
×
You can save this tab as Personal to edit and correct it or add notes. All changes will be seen only by you. Learn more »
launch autoscroll
font size
0
reset
how to read this tab
guitar tuner
edit
Autoscroll
slow
fast
+/-
esc
set tempo
stop
Author
Difficulty
[Riff]
   Dm       C            Bb                Dm       C            Bb        
E|-------------------------|------------|--------------------------|------------|
B|-------------------------|------------|--------------------------|------------|
G|-------------------------|------------|--------------------------|------------|
D|------10-12-----10--12---|------------|------10-12-----10--12----|------------|
A|-12----------10----------|------------|-12----------10-----------|------------|
E|-----------------------13|------------|-----------------------13-|------------|

   Dm       C     Bb             Dm           C          Bb        
E|-----------------|------------|-------------------------|---------------------|                  
B|-----------------|------------|-------------------------|---------------------|
G|-12--10--9-------|------------|-14---12--9--------------|----------------14---|
D|------------10---|---12-------|---------------10---12---|-12--12--12-----12---|
A|-----------------|------------|-------------------------|---------------------|
E|-----------------|------------|-------------------------|---------------------|

(Altijd als de akkoorden Dm C Bb en zijn en er wordt gezongen dan wordt dit gespeeld)
Dm         C         Bb                      Dm         C       Bb                      
Close     to   my    skin   I'm     falling  in someone who's  been 
E|--------------------|--------------------|-------------------|-----12---12------|                
B|--------------------|--------------------|-------------------|-----13---13------|
G|--14--------14------|--------------------|-14--14--------14--|-14--12---12---14-|
D|--------------------|--------------------|-------------------|------------------|
A|--------------------|--------------------|-------------------|------------------|
E|--------------------|--------------------|-------------------|------------------|
         
Dm       C       Bb                      
Sittin' by the phone I'm left alone
Dm       C       Bb                      
In another zone 
Dm       C       Bb                      
John says to live above hell 
Dm       C       Bb                      
My will is well 
Dm       C       Bb                      
No one is waiting for me to fail 
Dm       C       Bb                      
My will could sail yeah 

[Riff]
   Dm       C            Bb                Dm       C            Bb        
E|-------------------------|------------|--------------------------|------------|
B|-------------------------|------------|--------------------------|------------|
G|-------------------------|------------|--------------------------|------------|
D|------10-12-----10--12---|------------|------10-12-----10--12----|------------|
A|-12----------10----------|------------|-12----------10-----------|------------|
E|-----------------------13|------------|-----------------------13-|------------|

   Dm       C     Bb             Dm           C          Bb        
E|-----------------|------------|-------------------------|---------------------|                  
B|-----------------|------------|-------------------------|---------------------|
G|-12--10--9-------|------------|-14---12--9--------------|----------------14---|
D|------------10---|---12-------|---------------10---12---|-12--12--12-----12---|
A|-----------------|------------|-------------------------|---------------------|
E|-----------------|------------|-------------------------|---------------------|

Dm             C           Bb   
It's such a waste to be wasted in the first place 
I want to taste the taste of being face to face with common grace 
To meditate on the warmest dream 
And when I walk alone I listen to our secret theme 

Dm                            Am
Your solar eyes are like nothing I have ever seen 
Somebody close that can see right through 
I'd take a fall and you know that I'd do anything 
C          Am
I will for you 

   Dm       C        Bb                        Dm       C        Bb         
E|--------------------|----------------------|--------------------|---------------------|            
B|-----13-15----------|----------------------|----13-15-----------|---------------------|
G|-14---------12----14|---14--14----14-14-14-|-14----------12--14-|---14--14---14-14-14-|
D|--------------------|----------------------|--------------------|---------------------|
A|--------------------|----------------------|--------------------|---------------------|
E|--------------------|----------------------|--------------------|---------------------|

Dm         C       Bb   
Sailin' for the sun cause there is one 
Knows where I'm from 
I care for you I really do 
I really do 
Come closer now so you can lie 
Right by my side 
Sit alone in the sun I wrote a letter to you 
Getting over myself 

E|-5-5-5-5-5-5-5-5-|-7-7-7-7-7-7-7-7-|-10-10-10-10-10-10-10-10-|-12-12-12-/15--15-----15-|
B|-5-5-5-5-5-5-5-5-|-5-5-5-5-5-5-5-5-|-10-10-10-10-10-10-10-10-|-10-10-10------13--------|
G|-5-5-5-5-5-5-5-5-|-5-5-5-5-5-5-5-5-|-9--9--9--9--9--9--9--9--|-9--9--9-------14-----14-|
D|-----------------|-----------------|-10-10-10-10-10-10-10-10-|-10-10-10----------------|
A|-----------------|-----------------|-------------------------|-------------------------|
E|-----------------|-----------------|-------------------------|-------------------------|

Dm                            Am
Your solar eyes are like nothing I have ever seen 
Somebody close that can see right through 
I'd take a fall and you know that I'd do anything 
C          Am
I will for you Your 
Dm                            Am
Your solar eyes are like nothing I have ever seen 
Somebody close that can see right through 
I'd take a fall and you know that I'd do anything 
C          Am
I will for you

   Dm       C        Bb                        Dm       C        Bb         
E|--------------------|----------------------|--------------------|---------------------|            
B|-----13-15----------|----------------------|----13-15-----------|---------------------|
G|-14---------12----14|---14--14----14-14-14-|-14----------12--14-|---14--14---14-14-14-|
D|--------------------|----------------------|--------------------|---------------------|
A|--------------------|----------------------|--------------------|---------------------|
E|--------------------|----------------------|--------------------|---------------------|

Dm       C       Bb   
Close to my skin someone who's been 
I'm a falling in 
Disasters are just another star 
Falling in my yard 
John says to live above hell 
My will is well 
Long to be with someone to tell 
I love your smell


************************************

| /  Slide up

************************************

            
            
Suggest correction
Creating personal tab
Creating personal tab
You can edit any tab online and save it as your Personal.

You can edit, replace or remove any tab part or add personal notes – all changes will be seen only by you.

Personal tabs can be accessed anytime from any device, even offline.
Learn more »
Give kudos to tab author, rate the tab!
1 2 3 4 5
comments
print report bad tab
guest
You may want to rate the tab now too:
select rating
Wanna post a correction for this tab? Suggest correction